  0
SECTION
  2
HEADER
  9
$ACADVER
  1
AC1009
  9
$INSBASE
 10
0.0
 20
0.0
 30
0.0
  9
$EXTMIN
 10
281.396000
 20
29.897000
 30
-2147483.648000
  9
$EXTMAX
 10
291.896000
 20
44.747000
 30
0.000000
  9
$LIMMIN
 10
280.396000
 20
28.897000
  9
$LIMMAX
 10
292.896000
 20
43.747000
  9
$ORTHOMODE
 70
     0
  9
$REGENMODE
 70
     1
  9
$FILLMODE
 70
     1
  9
$QTEXTMODE
 70
     0
  9
$MIRRTEXT
 70
     1
  9
$DRAGMODE
 70
     2
  9
$LTSCALE
 40
1.0
  9
$OSMODE
 70
     0
  9
$ATTMODE
 70
     1
  9
$TEXTSIZE
 40
0.2
  9
$TRACEWID
 40
0.05
  9
$TEXTSTYLE
  7
STANDARD
  9
$CLAYER
  8
0
  9
$CELTYPE
  6
BYLAYER
  9
$CECOLOR
 62
   256
  9
$DIMSCALE
 40
1.0
  9
$DIMASZ
 40
0.18
  9
$DIMEXO
 40
0.0625
  9
$DIMDLI
 40
0.38
  9
$DIMRND
 40
0.0
  9
$DIMDLE
 40
0.0
  9
$DIMEXE
 40
0.18
  9
$DIMTP
 40
0.0
  9
$DIMTM
 40
0.0
  9
$DIMTXT
 40
0.18
  9
$DIMCEN
 40
0.09
  9
$DIMTSZ
 40
0.0
  9
$DIMTOL
 70
     0
  9
$DIMLIM
 70
     0
  9
$DIMTIH
 70
     1
  9
$DIMTOH
 70
     1
  9
$DIMSE1
 70
     0
  9
$DIMSE2
 70
     0
  9
$DIMTAD
 70
     0
  9
$DIMZIN
 70
     0
  9
$DIMBLK
  1

  9
$DIMASO
 70
     1
  9
$DIMSHO
 70
     1
  9
$DIMPOST
  1

  9
$DIMAPOST
  1

  9
$DIMALT
 70
     0
  9
$DIMALTD
 70
     2
  9
$DIMALTF
 40
25.4
  9
$DIMLFAC
 40
1.0
  9
$DIMTOFL
 70
     0
  9
$DIMTVP
 40
0.0
  9
$DIMTIX
 70
     0
  9
$DIMSOXD
 70
     0
  9
$DIMSAH
 70
     0
  9
$DIMBLK1
  1

  9
$DIMBLK2
  1

  9
$DIMSTYLE
  2
*UNNAMED
  9
$DIMCLRD
 70
     0
  9
$DIMCLRE
 70
     0
  9
$DIMCLRT
 70
     0
  9
$DIMTFAC
 40
1.0
  9
$DIMGAP
 40
0.09
  9
$LUNITS
 70
     2
  9
$LUPREC
 70
     4
  9
$AXISMODE
 70
     0
  9
$AXISUNIT
 10
0.0
 20
0.0
  9
$SKETCHINC
 40
0.1
  9
$FILLETRAD
 40
0.0
  9
$AUNITS
 70
     0
  9
$AUPREC
 70
     0
  9
$MENU
  1
acad
  9
$ELEVATION
 40
0.0
  9
$PELEVATION
 40
0.0
  9
$THICKNESS
 40
0.0
  9
$LIMCHECK
 70
     0
  9
$BLIPMODE
 70
     1
  9
$CHAMFERA
 40
0.0
  9
$CHAMFERB
 40
0.0
  9
$SKPOLY
 70
     0
  9
$TDCREATE
 40
2448315.373408102
  9
$TDUPDATE
 40
2448315.373408102
  9
$TDINDWG
 40
0.0000000000
  9
$TDUSRTIMER
 40
0.0000000000
  9
$USRTIMER
 70
     1
  9
$ANGBASE
 50
0.0
  9
$ANGDIR
 70
     0
  9
$PDMODE
 70
     0
  9
$PDSIZE
 40
0.0
  9
$PLINEWID
 40
0.0
  9
$COORDS
 70
     0
  9
$SPLFRAME
 70
     0
  9
$SPLINETYPE
 70
     6
  9
$SPLINESEGS
 70
     8
  9
$ATTDIA
 70
     0
  9
$ATTREQ
 70
     1
  9
$HANDLING
 70
     0
  9
$HANDSEED
  5
0
  9
$SURFTAB1
 70
     6
  9
$SURFTAB2
 70
     6
  9
$SURFTYPE
 70
     6
  9
$SURFU
 70
     6
  9
$SURFV
 70
     6
  9
$UCSNAME
  2

  9
$UCSORG
 10
0.0
 20
0.0
 30
0.0
  9
$UCSXDIR
 10
1.0
 20
0.0
 30
0.0
  9
$UCSYDIR
 10
0.0
 20
1.0
 30
0.0
  9
$PUCSNAME
  2

  9
$PUCSORG
 10
0.0
 20
0.0
 30
0.0
  9
$PUCSXDIR
 10
1.0
 20
0.0
 30
0.0
  9
$PUCSYDIR
 10
0.0
 20
1.0
 30
0.0
  9
$USERI1
 70
     0
  9
$USERI2
 70
     0
  9
$USERI3
 70
     0
  9
$USERI4
 70
     0
  9
$USERI5
 70
     0
  9
$USERR1
 40
0.0
  9
$USERR2
 40
0.0
  9
$USERR3
 40
0.0
  9
$USERR4
 40
0.0
  9
$USERR5
 40
0.0
  9
$WORLDVIEW
 70
     1
  9
$SHADEDGE
 70
     3
  9
$SHADEDIF
 70
    70
  9
$TILEMODE
 70
     1
  9
$MAXACTVP
 70
    16
  9
$PINSBASE
 10
0.0
 20
0.0
 30
0.0
  9
$PLIMCHECK
 70
     0
  9
$PEXTMIN
 10
1.000000E+20
 20
1.000000E+20
 30
1.000000E+20
  9
$PEXTMAX
 10
-1.000000E+20
 20
-1.000000E+20
 30
-1.000000E+20
  9
$PLIMMIN
 10
0.0
 20
0.0
  9
$PLIMMAX
 10
12.0
 20
9.0
  9
$UNITMODE
 70
     0
  9
$VISRETAIN
 70
     0
  0
ENDSEC
  0
SECTION
  2
TABLES
  0
TABLE
  2
LTYPE
 70
    1
  0
LTYPE
  2
CONTINUOUS
 70
    64
3
Solid line
 72
    65
 73
0
 40
0.000000
  0
ENDTAB
  0
TABLE
  2
LAYER
 70
    8
  0
LAYER
  2
0
 70
    64
 62
7
  6
CONTINUOUS
  0
LAYER
  2
1
 70
    64
 62
7
  6
CONTINUOUS
  0
LAYER
  2
7
 70
    64
 62
7
  6
CONTINUOUS
  0
LAYER
  2
8
 70
    64
 62
7
  6
CONTINUOUS
  0
LAYER
  2
9
 70
    64
 62
7
  6
CONTINUOUS
  0
LAYER
  2
22
 70
    64
 62
7
  6
CONTINUOUS
  0
LAYER
  2
25
 70
    64
 62
7
  6
CONTINUOUS
  0
LAYER
  2
0
 70
    64
 62
7
  6
CONTINUOUS
  0
ENDTAB
  0
TABLE
  2
STYLE
 70
    1
  0
STYLE
  2
ROMANC
70
     0
 40
0.0
 41
1.0
 50
0.0
 71
     0
 42
0.2
  3
ROMANC
  4

  0
ENDTAB
  0
ENDSEC
  0
SECTION
  2
BLOCKS
  0
ENDSEC
  0
SECTION
  2
ENTITIES
  0
TEXT
  8
0
  6
CONTINUOUS
 40
0.100000
 10
286.622000
 20
41.329000
  1
2
  7
ROMANC
  0
TEXT
  8
0
  6
CONTINUOUS
 40
0.300000
 10
283.926000
 20
41.768000
  1
ESCALA  1:50
  7
ROMANC
  0
POLYLINE
  8
0
  6
CONTINUOUS
 66
     1
 70
     1
  0
VERTEX
  8
0
  6
CONTINUOUS
 10
281.396000
 20
44.747000
  0
VERTEX
  8
0
  6
CONTINUOUS
 10
291.896000
 20
44.747000
  0
VERTEX
  8
0
  6
CONTINUOUS
 10
291.896000
 20
29.897000
  0
VERTEX
  8
0
  6
CONTINUOUS
 10
281.396000
 20
29.897000
  0
SEQEND
  8
0
  0
TEXT
  8
0
  6
CONTINUOUS
 40
0.300000
 10
283.945000
 20
41.099000
  1
S = 53 dm
  7
ROMANC
  0
TEXT
  8
0
  6
CONTINUOUS
 40
0.300000
 10
283.922000
 20
40.529000
  1
P = 29 dm
  7
ROMANC
  0
TEXT
  8
0
  6
CONTINUOUS
 40
0.300000
 10
283.926000
 20
42.381000
  1
TIPUS   NT53B
  7
ROMANC
  0
POLYLINE
  8
1
  6
CONTINUOUS
 66
     1
 70
     0
  0
VERTEX
  8
1
  6
CONTINUOUS
 10
286.531779
 20
36.799690
 42
0.030055
  0
VERTEX
  8
1
  6
CONTINUOUS
 10
286.529339
 20
36.840100
 42
0.030292
  0
VERTEX
  8
1
  6
CONTINUOUS
 10
286.522067
 20
36.879924
 42
0.030449
  0
VERTEX
  8
1
  6
CONTINUOUS
 10
286.510128
 20
36.918184
 42
0.031123
  0
VERTEX
  8
1
  6
CONTINUOUS
 10
286.493596
 20
36.954690
 42
0.031413
  0
VERTEX
  8
1
  6
CONTINUOUS
 10
286.472992
 20
36.988236
 42
0.032401
  0
VERTEX
  8
1
  6
CONTINUOUS
 10
286.448304
 20
37.018893
 42
0.032768
  0
VERTEX
  8
1
  6
CONTINUOUS
 10
286.420426
 20
37.045489
 42
0.033843
  0
VERTEX
  8
1
  6
CONTINUOUS
 10
286.389279
 20
37.068158
 42
0.034191
  0
VERTEX
  8
1
  6
CONTINUOUS
 10
286.355977
 20
37.086017
 42
0.035042
  0
VERTEX
  8
1
  6
CONTINUOUS
 10
286.320542
 20
37.099127
 42
0.035257
  0
VERTEX
  8
1
  6
CONTINUOUS
 10
286.284032
 20
37.107015
 42
0.035583
  0
VERTEX
  8
1
  6
CONTINUOUS
 10
286.246779
 20
37.109690
 42
0.035583
  0
VERTEX
  8
1
  6
CONTINUOUS
 10
286.209525
 20
37.107015
 42
0.035257
  0
VERTEX
  8
1
  6
CONTINUOUS
 10
286.173015
 20
37.099127
 42
0.035042
  0
VERTEX
  8
1
  6
CONTINUOUS
 10
286.137580
 20
37.086017
 42
0.034191
  0
VERTEX
  8
1
  6
CONTINUOUS
 10
286.104279
 20
37.068158
 42
0.033843
  0
VERTEX
  8
1
  6
CONTINUOUS
 10
286.073131
 20
37.045489
 42
0.032768
  0
VERTEX
  8
1
  6
CONTINUOUS
 10
286.045253
 20
37.018893
 42
0.032401
  0
VERTEX
  8
1
  6
CONTINUOUS
 10
286.020565
 20
36.988236
 42
0.031413
  0
VERTEX
  8
1
  6
CONTINUOUS
 10
285.999961
 20
36.954690
 42
0.031123
  0
VERTEX
  8
1
  6
CONTINUOUS
 10
285.983429
 20
36.918184
 42
0.030449
  0
VERTEX
  8
1
  6
CONTINUOUS
 10
285.971490
 20
36.879924
 42
0.030292
  0
VERTEX
  8
1
  6
CONTINUOUS
 10
285.964218
 20
36.840100
 42
0.030055
  0
VERTEX
  8
1
  6
CONTINUOUS
 10
285.961779
 20
36.799690
  0
SEQEND
  8
0
  0
POLYLINE
  8
1
  6
CONTINUOUS
 66
     1
 70
     0
  0
VERTEX
  8
1
  6
CONTINUOUS
 10
286.541779
 20
36.799690
 42
0.030137
  0
VERTEX
  8
1
  6
CONTINUOUS
 10
286.539253
 20
36.841405
 42
0.030368
  0
VERTEX
  8
1
  6
CONTINUOUS
 10
286.531727
 20
36.882512
 42
0.030521
  0
VERTEX
  8
1
  6
CONTINUOUS
 10
286.519367
 20
36.922010
 42
0.031175
  0
VERTEX
  8
1
  6
CONTINUOUS
 10
286.502256
 20
36.959690
 42
0.031457
  0
VERTEX
  8
1
  6
CONTINUOUS
 10
286.480926
 20
36.994324
 42
0.032415
  0
VERTEX
  8
1
  6
CONTINUOUS
 10
286.455375
 20
37.025964
 42
0.032769
  0
VERTEX
  8
1
  6
CONTINUOUS
 10
286.426513
 20
37.053423
 42
0.033809
  0
VERTEX
  8
1
  6
CONTINUOUS
 10
286.394279
 20
37.076818
 42
0.034145
  0
VERTEX
  8
1
  6
CONTINUOUS
 10
286.359804
 20
37.095256
 42
0.034964
  0
VERTEX
  8
1
  6
CONTINUOUS
 10
286.323130
 20
37.108786
 42
0.035172
  0
VERTEX
  8
1
  6
CONTINUOUS
 10
286.285337
 20
37.116929
 42
0.035485
  0
VERTEX
  8
1
  6
CONTINUOUS
 10
286.246779
 20
37.119690
 42
0.035485
  0
VERTEX
  8
1
  6
CONTINUOUS
 10
286.208220
 20
37.116929
 42
0.035172
  0
VERTEX
  8
1
  6
CONTINUOUS
 10
286.170427
 20
37.108786
 42
0.034964
  0
VERTEX
  8
1
  6
CONTINUOUS
 10
286.133753
 20
37.095256
 42
0.034145
  0
VERTEX
  8
1
  6
CONTINUOUS
 10
286.099279
 20
37.076818
 42
0.033809
  0
VERTEX
  8
1
  6
CONTINUOUS
 10
286.067044
 20
37.053423
 42
0.032769
  0
VERTEX
  8
1
  6
CONTINUOUS
 10
286.038182
 20
37.025964
 42
0.032415
  0
VERTEX
  8
1
  6
CONTINUOUS
 10
286.012631
 20
36.994324
 42
0.031457
  0
VERTEX
  8
1
  6
CONTINUOUS
 10
285.991301
 20
36.959690
 42
0.031175
  0
VERTEX
  8
1
  6
CONTINUOUS
 10
285.974190
 20
36.922010
 42
0.030521
  0
VERTEX
  8
1
  6
CONTINUOUS
 10
285.961830
 20
36.882512
 42
0.030368
  0
VERTEX
  8
1
  6
CONTINUOUS
 10
285.954304
 20
36.841405
 42
0.030137
  0
VERTEX
  8
1
  6
CONTINUOUS
 10
285.951779
 20
36.799690
  0
SEQEND
  8
0
  0
LINE
  8
1
  6
CONTINUOUS
 10
285.962000
 20
36.140000
 11
285.962000
 21
36.800000
  0
LINE
  8
1
  6
CONTINUOUS
 10
285.952000
 20
36.130000
 11
285.952000
 21
36.800000
  0
LINE
  8
1
  6
CONTINUOUS
 10
286.039000
 20
36.140000
 11
285.962000
 21
36.140000
  0
LINE
  8
1
  6
CONTINUOUS
 10
286.032000
 20
36.130000
 11
285.952000
 21
36.130000
  0
ARC
  8
1
  6
CONTINUOUS
 10
286.246779
 20
36.208023
 40
0.218333
 50
198.153064
 51
341.846936
  0
ARC
  8
1
  6
CONTINUOUS
 10
286.246779
 20
36.208023
 40
0.228333
 50
199.980933
 51
340.019067
  0
LINE
  8
1
  6
CONTINUOUS
 10
286.532000
 20
36.140000
 11
286.454000
 21
36.140000
  0
LINE
  8
1
  6
CONTINUOUS
 10
286.542000
 20
36.130000
 11
286.461000
 21
36.130000
  0
LINE
  8
1
  6
CONTINUOUS
 10
286.532000
 20
36.800000
 11
286.532000
 21
36.140000
  0
LINE
  8
1
  6
CONTINUOUS
 10
286.542000
 20
36.800000
 11
286.542000
 21
36.130000
  0
LINE
  8
1
  6
CONTINUOUS
 10
286.047000
 20
36.150000
 11
285.972000
 21
36.150000
  0
LINE
  8
1
  6
CONTINUOUS
 10
286.522000
 20
36.150000
 11
286.447000
 21
36.150000
  0
TEXT
  8
1
  6
CONTINUOUS
 40
0.075000
 10
285.587000
 20
35.714000
  1
0.40
  7
ROMANC
  0
LINE
  8
1
  6
CONTINUOUS
 10
285.974000
 20
35.751000
 11
286.047000
 21
35.751000
  0
LINE
  8
1
  6
CONTINUOUS
 10
286.597000
 20
35.751000
 11
286.447000
 21
35.751000
  0
LINE
  8
1
  6
CONTINUOUS
 10
286.084000
 20
35.770000
 11
286.010000
 21
35.732000
  0
LINE
  8
1
  6
CONTINUOUS
 10
286.410000
 20
35.732000
 11
286.484000
 21
35.770000
  0
LINE
  8
1
  6
CONTINUOUS
 10
286.047000
 20
36.112000
 11
286.047000
 21
35.713000
  0
LINE
  8
1
  6
CONTINUOUS
 10
286.447000
 20
36.112000
 11
286.447000
 21
35.713000
  0
LINE
  8
1
  6
CONTINUOUS
 10
285.972000
 20
36.150000
 11
285.972000
 21
36.800000
  0
LINE
  8
1
  6
CONTINUOUS
 10
286.522000
 20
36.800000
 11
286.522000
 21
36.150000
  0
TEXT
  8
1
  6
CONTINUOUS
 40
0.075000
 10
286.110000
 20
35.490000
  1
0.55
  7
ROMANC
  0
LINE
  8
1
  6
CONTINUOUS
 10
285.822000
 20
35.528000
 11
285.972000
 21
35.528000
  0
LINE
  8
1
  6
CONTINUOUS
 10
286.672000
 20
35.528000
 11
286.522000
 21
35.528000
  0
LINE
  8
1
  6
CONTINUOUS
 10
286.010000
 20
35.547000
 11
285.934000
 21
35.509000
  0
LINE
  8
1
  6
CONTINUOUS
 10
286.484000
 20
35.509000
 11
286.560000
 21
35.547000
  0
LINE
  8
1
  6
CONTINUOUS
 10
285.972000
 20
36.112000
 11
285.972000
 21
35.490000
  0
LINE
  8
1
  6
CONTINUOUS
 10
286.522000
 20
36.112000
 11
286.522000
 21
35.490000
  0
ARC
  8
1
  6
CONTINUOUS
 10
286.246779
 20
36.208023
 40
0.208333
 50
196.260206
 51
343.739797
  0
TEXT
  8
1
  6
CONTINUOUS
 40
0.075000
 10
286.770000
 20
36.337000
  1
0.15
 50
90.000000
  7
ROMANC
  0
LINE
  8
1
  6
CONTINUOUS
 10
286.732000
 20
36.223000
 11
286.732000
 21
36.150000
  0
LINE
  8
1
  6
CONTINUOUS
 10
286.732000
 20
35.850000
 11
286.732000
 21
36.000000
  0
LINE
  8
1
  6
CONTINUOUS
 10
286.751000
 20
36.112000
 11
286.713000
 21
36.188000
  0
LINE
  8
1
  6
CONTINUOUS
 10
286.713000
 20
36.038000
 11
286.751000
 21
35.962000
  0
LINE
  8
1
  6
CONTINUOUS
 10
286.560000
 20
36.150000
 11
286.770000
 21
36.150000
  0
LINE
  8
1
  6
CONTINUOUS
 10
286.297000
 20
36.000000
 11
286.770000
 21
36.000000
  0
TEXT
  8
1
  6
CONTINUOUS
 40
0.075000
 10
287.024000
 20
36.338000
  1
0.65
 50
90.000000
  7
ROMANC
  0
LINE
  8
1
  6
CONTINUOUS
 10
286.987000
 20
36.300000
 11
286.987000
 21
36.150000
  0
LINE
  8
1
  6
CONTINUOUS
 10
286.987000
 20
36.649000
 11
286.987000
 21
36.800000
  0
LINE
  8
1
  6
CONTINUOUS
 10
287.006000
 20
36.112000
 11
286.968000
 21
36.188000
  0
LINE
  8
1
  6
CONTINUOUS
 10
286.968000
 20
36.838000
 11
287.006000
 21
36.762000
  0
LINE
  8
1
  6
CONTINUOUS
 10
286.770000
 20
36.150000
 11
287.025000
 21
36.150000
  0
LINE
  8
1
  6
CONTINUOUS
 10
286.560000
 20
36.800000
 11
287.025000
 21
36.800000
  0
POLYLINE
  8
1
  6
CONTINUOUS
 66
     1
 70
     0
  0
VERTEX
  8
1
  6
CONTINUOUS
 10
286.521779
 20
36.799690
 42
0.029966
  0
VERTEX
  8
1
  6
CONTINUOUS
 10
286.519425
 20
36.838795
 42
0.030210
  0
VERTEX
  8
1
  6
CONTINUOUS
 10
286.512408
 20
36.877336
 42
0.030373
  0
VERTEX
  8
1
  6
CONTINUOUS
 10
286.500890
 20
36.914357
 42
0.031067
  0
VERTEX
  8
1
  6
CONTINUOUS
 10
286.484936
 20
36.949690
 42
0.031366
  0
VERTEX
  8
1
  6
CONTINUOUS
 10
286.465059
 20
36.982149
 42
0.032387
  0
VERTEX
  8
1
  6
CONTINUOUS
 10
286.441233
 20
37.011822
 42
0.032766
  0
VERTEX
  8
1
  6
CONTINUOUS
 10
286.414338
 20
37.037556
 42
0.033880
  0
VERTEX
  8
1
  6
CONTINUOUS
 10
286.384279
 20
37.059497
 42
0.034241
  0
VERTEX
  8
1
  6
CONTINUOUS
 10
286.352150
 20
37.076779
 42
0.035125
  0
VERTEX
  8
1
  6
CONTINUOUS
 10
286.317954
 20
37.089468
 42
0.035349
  0
VERTEX
  8
1
  6
CONTINUOUS
 10
286.282727
 20
37.097101
 42
0.035688
  0
VERTEX
  8
1
  6
CONTINUOUS
 10
286.246779
 20
37.099690
 42
0.035688
  0
VERTEX
  8
1
  6
CONTINUOUS
 10
286.210830
 20
37.097101
 42
0.035349
  0
VERTEX
  8
1
  6
CONTINUOUS
 10
286.175603
 20
37.089468
 42
0.035125
  0
VERTEX
  8
1
  6
CONTINUOUS
 10
286.141407
 20
37.076779
 42
0.034241
  0
VERTEX
  8
1
  6
CONTINUOUS
 10
286.109279
 20
37.059497
 42
0.033880
  0
VERTEX
  8
1
  6
CONTINUOUS
 10
286.079219
 20
37.037556
 42
0.032766
  0
VERTEX
  8
1
  6
CONTINUOUS
 10
286.052324
 20
37.011822
 42
0.032387
  0
VERTEX
  8
1
  6
CONTINUOUS
 10
286.028498
 20
36.982149
 42
0.031366
  0
VERTEX
  8
1
  6
CONTINUOUS
 10
286.008622
 20
36.949690
 42
0.031067
  0
VERTEX
  8
1
  6
CONTINUOUS
 10
285.992668
 20
36.914357
 42
0.030373
  0
VERTEX
  8
1
  6
CONTINUOUS
 10
285.981149
 20
36.877336
 42
0.030210
  0
VERTEX
  8
1
  6
CONTINUOUS
 10
285.974132
 20
36.838795
 42
0.029966
  0
VERTEX
  8
1
  6
CONTINUOUS
 10
285.971779
 20
36.799690
  0
SEQEND
  8
0
  0
TEXT
  8
1
  6
CONTINUOUS
 40
0.075000
 10
285.684000
 20
36.413000
  1
1.10
 50
90.000000
  7
ROMANC
  0
LINE
  8
1
  6
CONTINUOUS
 10
285.647000
 20
36.375000
 11
285.647000
 21
36.000000
  0
LINE
  8
1
  6
CONTINUOUS
 10
285.647000
 20
36.724000
 11
285.647000
 21
37.100000
  0
LINE
  8
1
  6
CONTINUOUS
 10
285.666000
 20
35.962000
 11
285.628000
 21
36.038000
  0
LINE
  8
1
  6
CONTINUOUS
 10
285.628000
 20
37.138000
 11
285.666000
 21
37.062000
  0
LINE
  8
1
  6
CONTINUOUS
 10
286.259000
 20
36.000000
 11
285.609000
 21
36.000000
  0
LINE
  8
1
  6
CONTINUOUS
 10
286.209000
 20
37.100000
 11
285.609000
 21
37.100000
  0
TEXT
  8
1
  6
CONTINUOUS
 40
0.075000
 10
286.110000
 20
37.310000
  1
0.55
  7
ROMANC
  0
LINE
  8
1
  6
CONTINUOUS
 10
285.822000
 20
37.347000
 11
285.972000
 21
37.347000
  0
LINE
  8
1
  6
CONTINUOUS
 10
286.672000
 20
37.347000
 11
286.522000
 21
37.347000
  0
LINE
  8
1
  6
CONTINUOUS
 10
286.010000
 20
37.366000
 11
285.934000
 21
37.328000
  0
LINE
  8
1
  6
CONTINUOUS
 10
286.484000
 20
37.328000
 11
286.560000
 21
37.366000
  0
LINE
  8
1
  6
CONTINUOUS
 10
285.972000
 20
36.838000
 11
285.972000
 21
37.385000
  0
LINE
  8
1
  6
CONTINUOUS
 10
286.522000
 20
36.838000
 11
286.522000
 21
37.385000
  0
ENDSEC
  0
EOF
