  0
SECTION
  2
HEADER
  9
$ACADVER
  1
AC1009
  9
$INSBASE
 10
0.0
 20
0.0
 30
0.0
  9
$EXTMIN
 10
318.829805
 20
29.85788
 30
0.0
  9
$EXTMAX
 10
329.371339
 20
44.72551
 30
0.0
  9
$LIMMIN
 10
0.0
 20
0.0
  9
$LIMMAX
 10
410.0
 20
287.0
  9
$ORTHOMODE
 70
     1
  9
$REGENMODE
 70
     1
  9
$FILLMODE
 70
     1
  9
$QTEXTMODE
 70
     0
  9
$MIRRTEXT
 70
     1
  9
$DRAGMODE
 70
     2
  9
$LTSCALE
 40
25.0
  9
$OSMODE
 70
     0
  9
$ATTMODE
 70
     1
  9
$TEXTSIZE
 40
0.1
  9
$TRACEWID
 40
1.0
  9
$TEXTSTYLE
  7
ROMANC
  9
$CLAYER
  8
0
  9
$CELTYPE
  6
BYLAYER
  9
$CECOLOR
 62
   256
  9
$DIMSCALE
 40
1.5
  9
$DIMASZ
 40
0.1
  9
$DIMEXO
 40
0.01
  9
$DIMDLI
 40
7.0
  9
$DIMRND
 40
0.0
  9
$DIMDLE
 40
0.0
  9
$DIMEXE
 40
0.01
  9
$DIMTP
 40
0.0
  9
$DIMTM
 40
0.0
  9
$DIMTXT
 40
0.05
  9
$DIMCEN
 40
0.0
  9
$DIMTSZ
 40
0.0
  9
$DIMTOL
 70
     0
  9
$DIMLIM
 70
     0
  9
$DIMTIH
 70
     0
  9
$DIMTOH
 70
     0
  9
$DIMSE1
 70
     0
  9
$DIMSE2
 70
     0
  9
$DIMTAD
 70
     1
  9
$DIMZIN
 70
     0
  9
$DIMBLK
  1

  9
$DIMASO
 70
     1
  9
$DIMSHO
 70
     0
  9
$DIMPOST
  1

  9
$DIMAPOST
  1

  9
$DIMALT
 70
     0
  9
$DIMALTD
 70
     2
  9
$DIMALTF
 40
25.4
  9
$DIMLFAC
 40
1.0
  9
$DIMTOFL
 70
     1
  9
$DIMTVP
 40
0.0
  9
$DIMTIX
 70
     1
  9
$DIMSOXD
 70
     0
  9
$DIMSAH
 70
     0
  9
$DIMBLK1
  1

  9
$DIMBLK2
  1

  9
$DIMSTYLE
  2
MERITXELL
  9
$DIMCLRD
 70
     0
  9
$DIMCLRE
 70
     0
  9
$DIMCLRT
 70
     0
  9
$DIMTFAC
 40
70.0
  9
$DIMGAP
 40
0.025
  9
$LUNITS
 70
     2
  9
$LUPREC
 70
     2
  9
$SKETCHINC
 40
1.0
  9
$FILLETRAD
 40
0.0
  9
$AUNITS
 70
     0
  9
$AUPREC
 70
     0
  9
$MENU
  1
acad
  9
$ELEVATION
 40
0.0
  9
$PELEVATION
 40
0.0
  9
$THICKNESS
 40
0.0
  9
$LIMCHECK
 70
     0
  9
$BLIPMODE
 70
     0
  9
$CHAMFERA
 40
0.0
  9
$CHAMFERB
 40
0.0
  9
$SKPOLY
 70
     0
  9
$TDCREATE
 40
2450927.46195
  9
$TDUPDATE
 40
2450984.548447
  9
$TDINDWG
 40
0.054451
  9
$TDUSRTIMER
 40
0.054451
  9
$USRTIMER
 70
     1
  9
$ANGBASE
 50
0.0
  9
$ANGDIR
 70
     0
  9
$PDMODE
 70
     0
  9
$PDSIZE
 40
0.0
  9
$PLINEWID
 40
0.0
  9
$COORDS
 70
     2
  9
$SPLFRAME
 70
     0
  9
$SPLINETYPE
 70
     6
  9
$SPLINESEGS
 70
     8
  9
$ATTDIA
 70
     0
  9
$ATTREQ
 70
     1
  9
$HANDLING
 70
     1
  9
$HANDSEED
  5
224
  9
$SURFTAB1
 70
     6
  9
$SURFTAB2
 70
     6
  9
$SURFTYPE
 70
     6
  9
$SURFU
 70
     6
  9
$SURFV
 70
     6
  9
$UCSNAME
  2

  9
$UCSORG
 10
0.0
 20
0.0
 30
0.0
  9
$UCSXDIR
 10
1.0
 20
0.0
 30
0.0
  9
$UCSYDIR
 10
0.0
 20
1.0
 30
0.0
  9
$PUCSNAME
  2

  9
$PUCSORG
 10
0.0
 20
0.0
 30
0.0
  9
$PUCSXDIR
 10
1.0
 20
0.0
 30
0.0
  9
$PUCSYDIR
 10
0.0
 20
1.0
 30
0.0
  9
$USERI1
 70
     0
  9
$USERI2
 70
     0
  9
$USERI3
 70
     0
  9
$USERI4
 70
     0
  9
$USERI5
 70
     0
  9
$USERR1
 40
0.0
  9
$USERR2
 40
0.0
  9
$USERR3
 40
0.0
  9
$USERR4
 40
0.0
  9
$USERR5
 40
0.0
  9
$WORLDVIEW
 70
     1
  9
$SHADEDGE
 70
     3
  9
$SHADEDIF
 70
    70
  9
$TILEMODE
 70
     1
  9
$MAXACTVP
 70
    16
  9
$PLIMCHECK
 70
     0
  9
$PEXTMIN
 10
1.000000E+020
 20
1.000000E+020
 30
1.000000E+020
  9
$PEXTMAX
 10
-1.000000E+020
 20
-1.000000E+020
 30
-1.000000E+020
  9
$PLIMMIN
 10
0.0
 20
0.0
  9
$PLIMMAX
 10
12.0
 20
9.0
  9
$UNITMODE
 70
     0
  9
$VISRETAIN
 70
     0
  9
$PLINEGEN
 70
     0
  9
$PSLTSCALE
 70
     0
  0
ENDSEC
  0
SECTION
  2
TABLES
  0
TABLE
  2
VPORT
 70
     7
  0
VPORT
  2
*ACTIVE
 70
     0
 10
0.0
 20
0.0
 11
1.0
 21
1.0
 12
324.100572
 22
37.291695
 13
0.0
 23
0.0
 14
1.0
 24
1.0
 15
10.0
 25
10.0
 16
0.0
 26
0.0
 36
1.0
 17
0.0
 27
0.0
 37
0.0
 40
14.996726
 41
1.662319
 42
50.0
 43
0.0
 44
0.0
 50
0.0
 51
0.0
 71
     0
 72
   100
 73
     1
 74
     0
 75
     0
 76
     0
 77
     0
 78
     1
  0
ENDTAB
  0
TABLE
  2
LTYPE
 70
     1
  0
LTYPE
  2
CONTINUOUS
 70
     0
  3
Solid line
 72
    65
 73
     0
 40
0.0
  0
ENDTAB
  0
TABLE
  2
LAYER
 70
     2
  0
LAYER
  2
0
 70
     0
 62
     7
  6
CONTINUOUS
  0
LAYER
  2
DEFPOINTS
 70
     0
 62
     7
  6
CONTINUOUS
  0
ENDTAB
  0
TABLE
  2
STYLE
 70
     2
  0
STYLE
  2
STANDARD
 70
     0
 40
0.0
 41
1.0
 50
0.0
 71
     0
 42
0.1
  3
txt
  4

  0
STYLE
  2
ROMANC
 70
     0
 40
0.0
 41
1.0
 50
0.0
 71
     0
 42
0.1
  3
romanc
  4

  0
ENDTAB
  0
TABLE
  2
VIEW
 70
     0
  0
ENDTAB
  0
TABLE
  2
UCS
 70
     0
  0
ENDTAB
  0
TABLE
  2
APPID
 70
     1
  0
APPID
  2
ACAD
 70
     0
  0
ENDTAB
  0
TABLE
  2
DIMSTYLE
 70
     1
  0
DIMSTYLE
  2
MERITXELL
 70
     0
  3

  4

  5

  6

  7

 40
1.5
 41
0.1
 42
0.01
 43
7.0
 44
0.01
 45
0.0
 46
0.0
 47
0.0
 48
0.0
140
0.05
141
0.1
142
0.0
143
25.4
144
1.0
145
0.0
146
70.0
147
0.09
 71
     0
 72
     0
 73
     0
 74
     0
 75
     0
 76
     0
 77
     1
 78
     0
170
     0
171
     2
172
     1
173
     0
174
     1
175
     0
176
     0
177
     0
178
     0
  0
ENDTAB
  0
ENDSEC
  0
SECTION
  2
BLOCKS
  0
BLOCK
  8
0
  2
$MODEL_SPACE
 70
     0
 10
0.0
 20
0.0
 30
0.0
  3
$MODEL_SPACE
  1

  0
ENDBLK
  5
24
  8
0
  0
BLOCK
 67
     1
  8
0
  2
$PAPER_SPACE
 70
     0
 10
0.0
 20
0.0
 30
0.0
  3
$PAPER_SPACE
  1

  0
ENDBLK
  5
22
 67
     1
  8
0
  0
BLOCK
  8
0
  2
*D3
 70
     1
 10
0.0
 20
0.0
 30
0.0
  3
*D3
  1

  0
LINE
  5
90
  8
0
  6
BYBLOCK
 62
     0
 10
324.645591
 20
36.219039
 30
0.0
 11
325.103622
 21
36.219039
 31
0.0
  0
LINE
  5
91
  8
0
  6
BYBLOCK
 62
     0
 10
324.645591
 20
34.519039
 30
0.0
 11
325.103622
 21
34.519039
 31
0.0
  0
LINE
  5
92
  8
0
  6
BYBLOCK
 62
     0
 10
325.088622
 20
36.069039
 30
0.0
 11
325.088622
 21
34.669039
 31
0.0
  0
SOLID
  5
93
  8
0
  6
BYBLOCK
 62
     0
 10
325.063622
 20
36.069039
 30
0.0
 11
325.113622
 21
36.069039
 31
0.0
 12
325.088622
 22
36.219039
 32
0.0
 13
325.088622
 23
36.219039
 33
0.0
  0
SOLID
  5
94
  8
0
  6
BYBLOCK
 62
     0
 10
325.063622
 20
34.669039
 30
0.0
 11
325.113622
 21
34.669039
 31
0.0
 12
325.088622
 22
34.519039
 32
0.0
 13
325.088622
 23
34.519039
 33
0.0
  0
TEXT
  8
0
  40
0.075
  5
21C
  62
0
  72
0
  71
0
 10
324.864
 20
35.2363
 30
0.000000
  1
1.70
  7
ROMANC
  0
POINT
  5
96
  8
DEFPOINTS
  6
BYBLOCK
 62
     0
 10
324.630591
 20
36.219039
 30
0.0
  0
POINT
  5
97
  8
DEFPOINTS
  6
BYBLOCK
 62
     0
 10
324.630591
 20
34.519039
 30
0.0
  0
POINT
  5
98
  8
DEFPOINTS
  6
BYBLOCK
 62
     0
 10
325.088622
 20
34.519039
 30
0.0
  0
ENDBLK
  5
99
  8
0
  0
BLOCK
  8
0
  2
*D5
 70
     1
 10
0.0
 20
0.0
 30
0.0
  3
*D5
  1

  0
LINE
  5
C0
  8
0
  6
BYBLOCK
 62
     0
 10
322.730591
 20
34.504039
 30
0.0
 11
322.730591
 21
33.951746
 31
0.0
  0
LINE
  5
C1
  8
0
  6
BYBLOCK
 62
     0
 10
324.630591
 20
34.504039
 30
0.0
 11
324.630591
 21
33.951746
 31
0.0
  0
LINE
  5
C2
  8
0
  6
BYBLOCK
 62
     0
 10
322.880591
 20
33.966746
 30
0.0
 11
324.480591
 21
33.966746
 31
0.0
  0
SOLID
  5
C3
  8
0
  6
BYBLOCK
 62
     0
 10
322.880591
 20
33.991746
 30
0.0
 11
322.880591
 21
33.941746
 31
0.0
 12
322.730591
 22
33.966746
 32
0.0
 13
322.730591
 23
33.966746
 33
0.0
  0
SOLID
  5
C4
  8
0
  6
BYBLOCK
 62
     0
 10
324.480591
 20
33.991746
 30
0.0
 11
324.480591
 21
33.941746
 31
0.0
 12
324.630591
 22
33.966746
 32
0.0
 13
324.630591
 23
33.966746
 33
0.0
  0
TEXT
  8
0
  40
0.075
  5
21D
  62
0
  72
0
  71
0
 10
323.531
 20
33.9090
 30
0.000000
  1
1.90
  7
ROMANC
  0
POINT
  5
C6
  8
DEFPOINTS
  6
BYBLOCK
 62
     0
 10
322.730591
 20
34.519039
 30
0.0
  0
POINT
  5
C7
  8
DEFPOINTS
  6
BYBLOCK
 62
     0
 10
324.630591
 20
34.519039
 30
0.0
  0
POINT
  5
C8
  8
DEFPOINTS
  6
BYBLOCK
 62
     0
 10
324.630591
 20
33.966746
 30
0.0
  0
ENDBLK
  5
C9
  8
0
  0
BLOCK
  8
0
  2
*D6
 70
     1
 10
0.0
 20
0.0
 30
0.0
  3
*D6
  1

  0
LINE
  5
107
  8
0
  6
BYBLOCK
 62
     0
 10
324.645591
 20
34.519039
 30
0.0
 11
325.103622
 21
34.519039
 31
0.0
  0
LINE
  5
108
  8
0
  6
BYBLOCK
 62
     0
 10
323.695591
 20
34.369039
 30
0.0
 11
325.103622
 21
34.369039
 31
0.0
  0
LINE
  5
109
  8
0
  6
BYBLOCK
 62
     0
 10
325.088622
 20
34.669039
 30
0.0
 11
325.088622
 21
34.819039
 31
0.0
  0
LINE
  5
10A
  8
0
  6
BYBLOCK
 62
     0
 10
325.088622
 20
34.219039
 30
0.0
 11
325.088622
 21
34.069039
 31
0.0
  0
TEXT
  8
0
  40
0.075
  5
21E
  62
0
  72
0
  71
0
 10
324.851
 20
34.0793
 30
0.000000
  1
0.15
  7
ROMANC
  0
LINE
  5
10C
  8
0
  6
BYBLOCK
 62
     0
 10
325.088622
 20
34.519039
 30
0.0
 11
325.088622
 21
34.369039
 31
0.0
  0
LINE
  5
10D
  8
0
  6
BYBLOCK
 62
     0
 10
325.088622
 20
34.519039
 30
0.0
 11
325.088622
 21
34.369039
 31
0.0
  0
SOLID
  5
10E
  8
0
  6
BYBLOCK
 62
     0
 10
325.063622
 20
34.669039
 30
0.0
 11
325.113622
 21
34.669039
 31
0.0
 12
325.088622
 22
34.519039
 32
0.0
 13
325.088622
 23
34.519039
 33
0.0
  0
SOLID
  5
10F
  8
0
  6
BYBLOCK
 62
     0
 10
325.063622
 20
34.219039
 30
0.0
 11
325.113622
 21
34.219039
 31
0.0
 12
325.088622
 22
34.369039
 32
0.0
 13
325.088622
 23
34.369039
 33
0.0
  0
POINT
  5
110
  8
DEFPOINTS
  6
BYBLOCK
 62
     0
 10
324.630591
 20
34.519039
 30
0.0
  0
POINT
  5
111
  8
DEFPOINTS
  6
BYBLOCK
 62
     0
 10
323.680591
 20
34.369039
 30
0.0
  0
POINT
  5
112
  8
DEFPOINTS
  6
BYBLOCK
 62
     0
 10
325.088622
 20
34.369039
 30
0.0
  0
ENDBLK
  5
113
  8
0
  0
BLOCK
  8
0
  2
*D7
 70
     1
 10
0.0
 20
0.0
 30
0.0
  3
*D7
  1

  0
LINE
  5
116
  8
0
  6
BYBLOCK
 62
     0
 10
324.645591
 20
36.219039
 30
0.0
 11
325.501023
 21
36.219039
 31
0.0
  0
LINE
  5
117
  8
0
  6
BYBLOCK
 62
     0
 10
323.695591
 20
34.369039
 30
0.0
 11
325.501023
 21
34.369039
 31
0.0
  0
LINE
  5
118
  8
0
  6
BYBLOCK
 62
     0
 10
325.486023
 20
36.069039
 30
0.0
 11
325.486023
 21
34.519039
 31
0.0
  0
SOLID
  5
119
  8
0
  6
BYBLOCK
 62
     0
 10
325.461023
 20
36.069039
 30
0.0
 11
325.511023
 21
36.069039
 31
0.0
 12
325.486023
 22
36.219039
 32
0.0
 13
325.486023
 23
36.219039
 33
0.0
  0
SOLID
  5
11A
  8
0
  6
BYBLOCK
 62
     0
 10
325.461023
 20
34.519039
 30
0.0
 11
325.511023
 21
34.519039
 31
0.0
 12
325.486023
 22
34.369039
 32
0.0
 13
325.486023
 23
34.369039
 33
0.0
  0
TEXT
  8
0
  40
0.075
  5
21F
  62
0
  72
0
  71
0
 10
325.261
 20
35.1613
 30
0.000000
  1
1.85
  7
ROMANC
  0
POINT
  5
11C
  8
DEFPOINTS
  6
BYBLOCK
 62
     0
 10
324.630591
 20
36.219039
 30
0.0
  0
POINT
  5
11D
  8
DEFPOINTS
  6
BYBLOCK
 62
     0
 10
323.680591
 20
34.369039
 30
0.0
  0
POINT
  5
11E
  8
DEFPOINTS
  6
BYBLOCK
 62
     0
 10
325.486023
 20
34.369039
 30
0.0
  0
ENDBLK
  5
11F
  8
0
  0
BLOCK
  8
0
  2
*D8
 70
     1
 10
0.0
 20
0.0
 30
0.0
  3
*D8
  1

  0
LINE
  5
1AB
  8
0
  6
BYBLOCK
 62
     0
 10
322.083475
 20
34.340324
 30
0.0
 11
322.083475
 21
33.785381
 31
0.0
  0
LINE
  5
1AC
  8
0
  6
BYBLOCK
 62
     0
 10
325.083475
 20
34.340324
 30
0.0
 11
325.083475
 21
33.785381
 31
0.0
  0
LINE
  5
1AD
  8
0
  6
BYBLOCK
 62
     0
 10
322.233475
 20
33.800381
 30
0.0
 11
324.933475
 21
33.800381
 31
0.0
  0
SOLID
  5
1AE
  8
0
  6
BYBLOCK
 62
     0
 10
322.233475
 20
33.825381
 30
0.0
 11
322.233475
 21
33.775381
 31
0.0
 12
322.083475
 22
33.800381
 32
0.0
 13
322.083475
 23
33.800381
 33
0.0
  0
SOLID
  5
1AF
  8
0
  6
BYBLOCK
 62
     0
 10
324.933475
 20
33.825381
 30
0.0
 11
324.933475
 21
33.775381
 31
0.0
 12
325.083475
 22
33.800381
 32
0.0
 13
325.083475
 23
33.800381
 33
0.0
  0
TEXT
  8
0
  40
0.075
  5
220
  62
0
  72
0
  71
0
 10
323.433
 20
33.7426
 30
0.000000
  1
1.50
  7
ROMANC
  0
POINT
  5
1B1
  8
DEFPOINTS
  6
BYBLOCK
 62
     0
 10
322.083475
 20
34.355324
 30
0.0
  0
POINT
  5
1B2
  8
DEFPOINTS
  6
BYBLOCK
 62
     0
 10
325.083475
 20
34.355324
 30
0.0
  0
POINT
  5
1B3
  8
DEFPOINTS
  6
BYBLOCK
 62
     0
 10
325.083475
 20
33.800381
 30
0.0
  0
ENDBLK
  5
1B4
  8
0
  0
BLOCK
  8
0
  2
*D9
 70
     1
 10
0.0
 20
0.0
 30
0.0
  3
*D9
  1

  0
LINE
  5
1A0
  8
0
  6
BYBLOCK
 62
     0
 10
323.683505
 20
35.253877
 30
0.0
 11
325.553382
 21
35.253877
 31
0.0
  0
LINE
  5
1A1
  8
0
  6
BYBLOCK
 62
     0
 10
325.098475
 20
34.355324
 30
0.0
 11
325.553382
 21
34.355324
 31
0.0
  0
LINE
  5
1A2
  8
0
  6
BYBLOCK
 62
     0
 10
325.538382
 20
35.103877
 30
0.0
 11
325.538382
 21
34.505324
 31
0.0
  0
SOLID
  5
1A3
  8
0
  6
BYBLOCK
 62
     0
 10
325.513382
 20
35.103877
 30
0.0
 11
325.563382
 21
35.103877
 31
0.0
 12
325.538382
 22
35.253877
 32
0.0
 13
325.538382
 23
35.253877
 33
0.0
  0
SOLID
  5
1A4
  8
0
  6
BYBLOCK
 62
     0
 10
325.513382
 20
34.505324
 30
0.0
 11
325.563382
 21
34.505324
 31
0.0
 12
325.538382
 22
34.355324
 32
0.0
 13
325.538382
 23
34.355324
 33
0.0
  0
TEXT
  8
0
  40
0.075
  5
221
  62
0
  72
0
  71
0
 10
325.313
 20
34.6719
 30
0.000000
  1
0.45
  7
ROMANC
  0
POINT
  5
1A6
  8
DEFPOINTS
  6
BYBLOCK
 62
     0
 10
323.668505
 20
35.253877
 30
0.0
  0
POINT
  5
1A7
  8
DEFPOINTS
  6
BYBLOCK
 62
     0
 10
325.083475
 20
34.355324
 30
0.0
  0
POINT
  5
1A8
  8
DEFPOINTS
  6
BYBLOCK
 62
     0
 10
325.538382
 20
34.355324
 30
0.0
  0
ENDBLK
  5
1A9
  8
0
  0
ENDSEC
  0
SECTION
  2
ENTITIES
  0
LINE
  5
27
  8
0
 10
329.348696
 20
29.863623
 30
0.0
 11
329.348696
 21
44.713623
 31
0.0
  0
LINE
  5
28
  8
0
 10
318.848696
 20
44.713623
 30
0.0
 11
318.848696
 21
29.863623
 31
0.0
  0
LINE
  5
29
  8
0
 10
318.848696
 20
29.863623
 30
0.0
 11
329.348696
 21
29.863623
 31
0.0
  0
TEXT
  5
2A
  8
0
 10
321.378668
 20
42.309482
 30
0.0
 40
0.3
  1
TIPUS   NT53A
  7
ROMANC
  0
TEXT
  5
2D
  8
0
 10
321.340746
 20
40.527599
 30
0.0
 40
0.3
  1
P = 34,1 dm
  7
ROMANC
  0
TEXT
  5
2E
  8
0
 10
321.391762
 20
41.225178
 30
0.0
 40
0.3
  1
S = 53 dm
  7
ROMANC
  0
TEXT
  5
2F
  8
0
 10
321.378668
 20
41.823768
 30
0.0
 40
0.3
  1
ESCALA  1:25
  7
ROMANC
  0
TEXT
  5
30
  8
0
 10
324.28569
 20
41.531094
 30
0.0
 40
0.1
  1
2
  7
ROMANC
  0
LINE
  5
31
  8
0
 10
329.348696
 20
44.713623
 30
0.0
 11
318.848696
 21
44.713623
 31
0.0
  0
LINE
  5
1BB
  8
0
 10
322.06567
 20
34.340324
 30
0.0
 11
325.100258
 21
34.340324
 31
0.0
  0
LINE
  5
1BC
  8
0
 10
325.100258
 20
34.340324
 30
0.0
 11
325.084583
 21
34.479574
 31
0.0
  0
LINE
  5
1BD
  8
0
 10
325.084583
 20
34.479574
 30
0.0
 11
325.048066
 21
34.590022
 31
0.0
  0
LINE
  5
1BE
  8
0
 10
325.048066
 20
34.590022
 30
0.0
 11
324.977068
 21
34.714911
 31
0.0
  0
LINE
  5
1BF
  8
0
 10
324.977068
 20
34.714911
 30
0.0
 11
324.892383
 21
34.816745
 31
0.0
  0
LINE
  5
1C0
  8
0
 10
324.892383
 20
34.816745
 30
0.0
 11
324.808048
 21
34.894688
 31
0.0
  0
LINE
  5
1C1
  8
0
 10
324.808048
 20
34.894688
 30
0.0
 11
324.704127
 21
34.971632
 31
0.0
  0
LINE
  5
1C2
  8
0
 10
324.704127
 20
34.971632
 30
0.0
 11
324.584206
 21
35.042775
 31
0.0
  0
LINE
  5
1C3
  8
0
 10
324.584206
 20
35.042775
 30
0.0
 11
324.456394
 21
35.103557
 31
0.0
  0
LINE
  5
1C4
  8
0
 10
324.456394
 20
35.103557
 30
0.0
 11
324.291529
 21
35.164511
 31
0.0
  0
LINE
  5
1C5
  8
0
 10
324.291529
 20
35.164511
 30
0.0
 11
324.108521
 21
35.21377
 31
0.0
  0
LINE
  5
1C6
  8
0
 10
324.108521
 20
35.21377
 30
0.0
 11
323.955522
 21
35.242383
 31
0.0
  0
LINE
  5
1C7
  8
0
 10
323.955522
 20
35.242383
 30
0.0
 11
323.81566
 21
35.259549
 31
0.0
  0
LINE
  5
1C8
  8
0
 10
323.81566
 20
35.259549
 30
0.0
 11
323.669018
 21
35.268875
 31
0.0
  0
LINE
  5
1C9
  8
0
 10
323.669018
 20
35.268875
 30
0.0
 11
323.522295
 21
35.269588
 31
0.0
  0
LINE
  5
1CA
  8
0
 10
323.522295
 20
35.269588
 30
0.0
 11
323.341645
 21
35.258631
 31
0.0
  0
LINE
  5
1CB
  8
0
 10
323.341645
 20
35.258631
 30
0.0
 11
323.193593
 21
35.239595
 31
0.0
  0
LINE
  5
1CC
  8
0
 10
323.193593
 20
35.239595
 30
0.0
 11
322.984537
 21
35.19598
 31
0.0
  0
LINE
  5
1CD
  8
0
 10
322.984537
 20
35.19598
 30
0.0
 11
322.827384
 21
35.148531
 31
0.0
  0
LINE
  5
1CE
  8
0
 10
322.827384
 20
35.148531
 30
0.0
 11
322.623022
 21
35.063417
 31
0.0
  0
LINE
  5
1CF
  8
0
 10
322.623022
 20
35.063417
 30
0.0
 11
322.476382
 21
34.980519
 31
0.0
  0
LINE
  5
1D0
  8
0
 10
322.476382
 20
34.980519
 30
0.0
 11
322.34042
 21
34.879041
 31
0.0
  0
LINE
  5
1D1
  8
0
 10
322.34042
 20
34.879041
 30
0.0
 11
322.254891
 21
34.795736
 31
0.0
  0
LINE
  5
1D2
  8
0
 10
322.254891
 20
34.795736
 30
0.0
 11
322.164688
 21
34.676901
 31
0.0
  0
LINE
  5
1D3
  8
0
 10
322.164688
 20
34.676901
 30
0.0
 11
322.100763
 21
34.544028
 31
0.0
  0
LINE
  5
1D4
  8
0
 10
322.100763
 20
34.544028
 30
0.0
 11
322.06567
 21
34.340324
 31
0.0
  0
LINE
  5
1D5
  8
0
 10
322.074572
 20
34.347824
 30
0.0
 11
325.091867
 21
34.347824
 31
0.0
  0
LINE
  5
1D6
  8
0
 10
325.091867
 20
34.347824
 30
0.0
 11
325.077217
 21
34.47796
 31
0.0
  0
LINE
  5
1D7
  8
0
 10
325.077217
 20
34.47796
 30
0.0
 11
325.041179
 21
34.586962
 31
0.0
  0
LINE
  5
1D8
  8
0
 10
325.041179
 20
34.586962
 30
0.0
 11
324.970876
 21
34.710627
 31
0.0
  0
LINE
  5
1D9
  8
0
 10
324.970876
 20
34.710627
 30
0.0
 11
324.886931
 21
34.811571
 31
0.0
  0
LINE
  5
1DA
  8
0
 10
324.886931
 20
34.811571
 30
0.0
 11
324.803257
 21
34.888903
 31
0.0
  0
LINE
  5
1DB
  8
0
 10
324.803257
 20
34.888903
 30
0.0
 11
324.699972
 21
34.965377
 31
0.0
  0
LINE
  5
1DC
  8
0
 10
324.699972
 20
34.965377
 30
0.0
 11
324.580674
 21
35.036149
 31
0.0
  0
LINE
  5
1DD
  8
0
 10
324.580674
 20
35.036149
 30
0.0
 11
324.453477
 21
35.096639
 31
0.0
  0
LINE
  5
1DE
  8
0
 10
324.453477
 20
35.096639
 30
0.0
 11
324.289249
 21
35.157358
 31
0.0
  0
LINE
  5
1DF
  8
0
 10
324.289249
 20
35.157358
 30
0.0
 11
324.106854
 21
35.206452
 31
0.0
  0
LINE
  5
1E0
  8
0
 10
324.106854
 20
35.206452
 30
0.0
 11
323.954374
 21
35.234968
 31
0.0
  0
LINE
  5
1E1
  8
0
 10
323.954374
 20
35.234968
 30
0.0
 11
323.814964
 21
35.252078
 31
0.0
  0
LINE
  5
1E2
  8
0
 10
323.814964
 20
35.252078
 30
0.0
 11
323.668761
 21
35.261376
 31
0.0
  0
LINE
  5
1E3
  8
0
 10
323.668761
 20
35.261376
 30
0.0
 11
323.522504
 21
35.262087
 31
0.0
  0
LINE
  5
1E4
  8
0
 10
323.522504
 20
35.262087
 30
0.0
 11
323.342351
 21
35.25116
 31
0.0
  0
LINE
  5
1E5
  8
0
 10
323.342351
 20
35.25116
 30
0.0
 11
323.194839
 21
35.232194
 31
0.0
  0
LINE
  5
1E6
  8
0
 10
323.194839
 20
35.232194
 30
0.0
 11
322.98639
 21
35.188706
 31
0.0
  0
LINE
  5
1E7
  8
0
 10
322.98639
 20
35.188706
 30
0.0
 11
322.829917
 21
35.141461
 31
0.0
  0
LINE
  5
1E8
  8
0
 10
322.829917
 20
35.141461
 30
0.0
 11
322.626321
 21
35.056667
 31
0.0
  0
LINE
  5
1E9
  8
0
 10
322.626321
 20
35.056667
 30
0.0
 11
322.480487
 21
34.974224
 31
0.0
  0
LINE
  5
1EA
  8
0
 10
322.480487
 20
34.974224
 30
0.0
 11
322.345301
 21
34.873325
 31
0.0
  0
LINE
  5
1EB
  8
0
 10
322.345301
 20
34.873325
 30
0.0
 11
322.260526
 21
34.790755
 31
0.0
  0
LINE
  5
1EC
  8
0
 10
322.260526
 20
34.790755
 30
0.0
 11
322.171119
 21
34.672969
 31
0.0
  0
LINE
  5
1ED
  8
0
 10
322.171119
 20
34.672969
 30
0.0
 11
322.107976
 21
34.541721
 31
0.0
  0
LINE
  5
1EE
  8
0
 10
322.107976
 20
34.541721
 30
0.0
 11
322.074572
 21
34.347824
 31
0.0
  0
LINE
  5
1EF
  8
0
  6
BYBLOCK
 62
     0
 10
323.683505
 20
35.253877
 30
0.0
 11
325.553382
 21
35.253877
 31
0.0
  0
LINE
  5
1F0
  8
0
  6
BYBLOCK
 62
     0
 10
325.098475
 20
34.355324
 30
0.0
 11
325.553382
 21
34.355324
 31
0.0
  0
LINE
  5
1F1
  8
0
  6
BYBLOCK
 62
     0
 10
325.538382
 20
35.103877
 30
0.0
 11
325.538382
 21
34.505324
 31
0.0
  0
SOLID
  5
1F2
  8
0
  6
BYBLOCK
 62
     0
 10
325.513382
 20
35.103877
 30
0.0
 11
325.563382
 21
35.103877
 31
0.0
 12
325.538382
 22
35.253877
 32
0.0
 13
325.538382
 23
35.253877
 33
0.0
  0
SOLID
  5
1F3
  8
0
  6
BYBLOCK
 62
     0
 10
325.513382
 20
34.505324
 30
0.0
 11
325.563382
 21
34.505324
 31
0.0
 12
325.538382
 22
34.355324
 32
0.0
 13
325.538382
 23
34.355324
 33
0.0
  0
TEXT
  8
0
  40
0.075
  5
222
  62
0
  72
0
  71
0
 10
325.313
 20
34.6719
 30
0.000000
  1
0.45
  7
ROMANC
  0
POINT
  5
1F5
  8
DEFPOINTS
  6
BYBLOCK
 62
     0
 10
323.668505
 20
35.253877
 30
0.0
  0
POINT
  5
1F6
  8
DEFPOINTS
  6
BYBLOCK
 62
     0
 10
325.083475
 20
34.355324
 30
0.0
  0
POINT
  5
1F7
  8
DEFPOINTS
  6
BYBLOCK
 62
     0
 10
325.538382
 20
34.355324
 30
0.0
  0
LINE
  5
1F8
  8
0
  6
BYBLOCK
 62
     0
 10
322.083475
 20
34.340324
 30
0.0
 11
322.083475
 21
33.785381
 31
0.0
  0
LINE
  5
1F9
  8
0
  6
BYBLOCK
 62
     0
 10
325.083475
 20
34.340324
 30
0.0
 11
325.083475
 21
33.785381
 31
0.0
  0
LINE
  5
1FA
  8
0
  6
BYBLOCK
 62
     0
 10
322.233475
 20
33.800381
 30
0.0
 11
324.933475
 21
33.800381
 31
0.0
  0
SOLID
  5
1FB
  8
0
  6
BYBLOCK
 62
     0
 10
322.233475
 20
33.825381
 30
0.0
 11
322.233475
 21
33.775381
 31
0.0
 12
322.083475
 22
33.800381
 32
0.0
 13
322.083475
 23
33.800381
 33
0.0
  0
SOLID
  5
1FC
  8
0
  6
BYBLOCK
 62
     0
 10
324.933475
 20
33.825381
 30
0.0
 11
324.933475
 21
33.775381
 31
0.0
 12
325.083475
 22
33.800381
 32
0.0
 13
325.083475
 23
33.800381
 33
0.0
  0
TEXT
  8
0
  40
0.075
  5
223
  62
0
  72
0
  71
0
 10
323.433
 20
33.7426
 30
0.000000
  1
1.50
  7
ROMANC
  0
POINT
  5
1FE
  8
DEFPOINTS
  6
BYBLOCK
 62
     0
 10
322.083475
 20
34.355324
 30
0.0
  0
POINT
  5
1FF
  8
DEFPOINTS
  6
BYBLOCK
 62
     0
 10
325.083475
 20
34.355324
 30
0.0
  0
POINT
  5
200
  8
DEFPOINTS
  6
BYBLOCK
 62
     0
 10
325.083475
 20
33.800381
 30
0.0
  0
LINE
  5
201
  8
0
 10
322.083475
 20
34.355324
 30
0.0
 11
325.083475
 21
34.355324
 31
0.0
  0
LINE
  5
202
  8
0
 10
325.083475
 20
34.355324
 30
0.0
 11
325.069852
 21
34.476346
 31
0.0
  0
LINE
  5
203
  8
0
 10
325.069852
 20
34.476346
 30
0.0
 11
325.034291
 21
34.583902
 31
0.0
  0
LINE
  5
204
  8
0
 10
325.034291
 20
34.583902
 30
0.0
 11
324.964685
 21
34.706342
 31
0.0
  0
LINE
  5
205
  8
0
 10
324.964685
 20
34.706342
 30
0.0
 11
324.881479
 21
34.806397
 31
0.0
  0
LINE
  5
206
  8
0
 10
324.881479
 20
34.806397
 30
0.0
 11
324.798466
 21
34.883118
 31
0.0
  0
LINE
  5
207
  8
0
 10
324.798466
 20
34.883118
 30
0.0
 11
324.695816
 21
34.959121
 31
0.0
  0
LINE
  5
208
  8
0
 10
324.695816
 20
34.959121
 30
0.0
 11
324.577143
 21
35.029523
 31
0.0
  0
LINE
  5
209
  8
0
 10
324.577143
 20
35.029523
 30
0.0
 11
324.450561
 21
35.089721
 31
0.0
  0
LINE
  5
20A
  8
0
 10
324.450561
 20
35.089721
 30
0.0
 11
324.286969
 21
35.150204
 31
0.0
  0
LINE
  5
20B
  8
0
 10
324.286969
 20
35.150204
 30
0.0
 11
324.105188
 21
35.199133
 31
0.0
  0
LINE
  5
20C
  8
0
 10
324.105188
 20
35.199133
 30
0.0
 11
323.953227
 21
35.227553
 31
0.0
  0
LINE
  5
20D
  8
0
 10
323.953227
 20
35.227553
 30
0.0
 11
323.814269
 21
35.244607
 31
0.0
  0
LINE
  5
20E
  8
0
 10
323.814269
 20
35.244607
 30
0.0
 11
323.668505
 21
35.253877
 31
0.0
  0
LINE
  5
20F
  8
0
 10
323.668505
 20
35.253877
 30
0.0
 11
323.522713
 21
35.254586
 31
0.0
  0
LINE
  5
210
  8
0
 10
323.522713
 20
35.254586
 30
0.0
 11
323.343057
 21
35.243689
 31
0.0
  0
LINE
  5
211
  8
0
 10
323.343057
 20
35.243689
 30
0.0
 11
323.196085
 21
35.224792
 31
0.0
  0
LINE
  5
212
  8
0
 10
323.196085
 20
35.224792
 30
0.0
 11
322.988243
 21
35.181431
 31
0.0
  0
LINE
  5
213
  8
0
 10
322.988243
 20
35.181431
 30
0.0
 11
322.832449
 21
35.134391
 31
0.0
  0
LINE
  5
214
  8
0
 10
322.832449
 20
35.134391
 30
0.0
 11
322.62962
 21
35.049916
 31
0.0
  0
LINE
  5
215
  8
0
 10
322.62962
 20
35.049916
 30
0.0
 11
322.484592
 21
34.967929
 31
0.0
  0
LINE
  5
216
  8
0
 10
322.484592
 20
34.967929
 30
0.0
 11
322.350181
 21
34.867608
 31
0.0
  0
LINE
  5
217
  8
0
 10
322.350181
 20
34.867608
 30
0.0
 11
322.266161
 21
34.785773
 31
0.0
  0
LINE
  5
218
  8
0
 10
322.266161
 20
34.785773
 30
0.0
 11
322.17755
 21
34.669036
 31
0.0
  0
LINE
  5
219
  8
0
 10
322.17755
 20
34.669036
 30
0.0
 11
322.115189
 21
34.539414
 31
0.0
  0
LINE
  5
21A
  8
0
 10
322.115189
 20
34.539414
 30
0.0
 11
322.083475
 21
34.355324
 31
0.0
  0
ENDSEC
  0
EOF
