  0
SECTION
  2
HEADER
  9
$ACADVER
  1
AC1009
  9
$INSBASE
 10
0.0
 20
0.0
 30
0.0
  9
$EXTMIN
 10
281.396000
 20
29.897000
 30
-2147483.648000
  9
$EXTMAX
 10
291.896000
 20
44.747000
 30
0.000000
  9
$LIMMIN
 10
280.396000
 20
28.897000
  9
$LIMMAX
 10
292.896000
 20
43.747000
  9
$ORTHOMODE
 70
     0
  9
$REGENMODE
 70
     1
  9
$FILLMODE
 70
     1
  9
$QTEXTMODE
 70
     0
  9
$MIRRTEXT
 70
     1
  9
$DRAGMODE
 70
     2
  9
$LTSCALE
 40
1.0
  9
$OSMODE
 70
     0
  9
$ATTMODE
 70
     1
  9
$TEXTSIZE
 40
0.2
  9
$TRACEWID
 40
0.05
  9
$TEXTSTYLE
  7
STANDARD
  9
$CLAYER
  8
0
  9
$CELTYPE
  6
BYLAYER
  9
$CECOLOR
 62
   256
  9
$DIMSCALE
 40
1.0
  9
$DIMASZ
 40
0.18
  9
$DIMEXO
 40
0.0625
  9
$DIMDLI
 40
0.38
  9
$DIMRND
 40
0.0
  9
$DIMDLE
 40
0.0
  9
$DIMEXE
 40
0.18
  9
$DIMTP
 40
0.0
  9
$DIMTM
 40
0.0
  9
$DIMTXT
 40
0.18
  9
$DIMCEN
 40
0.09
  9
$DIMTSZ
 40
0.0
  9
$DIMTOL
 70
     0
  9
$DIMLIM
 70
     0
  9
$DIMTIH
 70
     1
  9
$DIMTOH
 70
     1
  9
$DIMSE1
 70
     0
  9
$DIMSE2
 70
     0
  9
$DIMTAD
 70
     0
  9
$DIMZIN
 70
     0
  9
$DIMBLK
  1

  9
$DIMASO
 70
     1
  9
$DIMSHO
 70
     1
  9
$DIMPOST
  1

  9
$DIMAPOST
  1

  9
$DIMALT
 70
     0
  9
$DIMALTD
 70
     2
  9
$DIMALTF
 40
25.4
  9
$DIMLFAC
 40
1.0
  9
$DIMTOFL
 70
     0
  9
$DIMTVP
 40
0.0
  9
$DIMTIX
 70
     0
  9
$DIMSOXD
 70
     0
  9
$DIMSAH
 70
     0
  9
$DIMBLK1
  1

  9
$DIMBLK2
  1

  9
$DIMSTYLE
  2
*UNNAMED
  9
$DIMCLRD
 70
     0
  9
$DIMCLRE
 70
     0
  9
$DIMCLRT
 70
     0
  9
$DIMTFAC
 40
1.0
  9
$DIMGAP
 40
0.09
  9
$LUNITS
 70
     2
  9
$LUPREC
 70
     4
  9
$AXISMODE
 70
     0
  9
$AXISUNIT
 10
0.0
 20
0.0
  9
$SKETCHINC
 40
0.1
  9
$FILLETRAD
 40
0.0
  9
$AUNITS
 70
     0
  9
$AUPREC
 70
     0
  9
$MENU
  1
acad
  9
$ELEVATION
 40
0.0
  9
$PELEVATION
 40
0.0
  9
$THICKNESS
 40
0.0
  9
$LIMCHECK
 70
     0
  9
$BLIPMODE
 70
     1
  9
$CHAMFERA
 40
0.0
  9
$CHAMFERB
 40
0.0
  9
$SKPOLY
 70
     0
  9
$TDCREATE
 40
2448315.373408102
  9
$TDUPDATE
 40
2448315.373408102
  9
$TDINDWG
 40
0.0000000000
  9
$TDUSRTIMER
 40
0.0000000000
  9
$USRTIMER
 70
     1
  9
$ANGBASE
 50
0.0
  9
$ANGDIR
 70
     0
  9
$PDMODE
 70
     0
  9
$PDSIZE
 40
0.0
  9
$PLINEWID
 40
0.0
  9
$COORDS
 70
     0
  9
$SPLFRAME
 70
     0
  9
$SPLINETYPE
 70
     6
  9
$SPLINESEGS
 70
     8
  9
$ATTDIA
 70
     0
  9
$ATTREQ
 70
     1
  9
$HANDLING
 70
     0
  9
$HANDSEED
  5
0
  9
$SURFTAB1
 70
     6
  9
$SURFTAB2
 70
     6
  9
$SURFTYPE
 70
     6
  9
$SURFU
 70
     6
  9
$SURFV
 70
     6
  9
$UCSNAME
  2

  9
$UCSORG
 10
0.0
 20
0.0
 30
0.0
  9
$UCSXDIR
 10
1.0
 20
0.0
 30
0.0
  9
$UCSYDIR
 10
0.0
 20
1.0
 30
0.0
  9
$PUCSNAME
  2

  9
$PUCSORG
 10
0.0
 20
0.0
 30
0.0
  9
$PUCSXDIR
 10
1.0
 20
0.0
 30
0.0
  9
$PUCSYDIR
 10
0.0
 20
1.0
 30
0.0
  9
$USERI1
 70
     0
  9
$USERI2
 70
     0
  9
$USERI3
 70
     0
  9
$USERI4
 70
     0
  9
$USERI5
 70
     0
  9
$USERR1
 40
0.0
  9
$USERR2
 40
0.0
  9
$USERR3
 40
0.0
  9
$USERR4
 40
0.0
  9
$USERR5
 40
0.0
  9
$WORLDVIEW
 70
     1
  9
$SHADEDGE
 70
     3
  9
$SHADEDIF
 70
    70
  9
$TILEMODE
 70
     1
  9
$MAXACTVP
 70
    16
  9
$PINSBASE
 10
0.0
 20
0.0
 30
0.0
  9
$PLIMCHECK
 70
     0
  9
$PEXTMIN
 10
1.000000E+20
 20
1.000000E+20
 30
1.000000E+20
  9
$PEXTMAX
 10
-1.000000E+20
 20
-1.000000E+20
 30
-1.000000E+20
  9
$PLIMMIN
 10
0.0
 20
0.0
  9
$PLIMMAX
 10
12.0
 20
9.0
  9
$UNITMODE
 70
     0
  9
$VISRETAIN
 70
     0
  0
ENDSEC
  0
SECTION
  2
TABLES
  0
TABLE
  2
LTYPE
 70
    1
  0
LTYPE
  2
CONTINUOUS
 70
    64
3
Solid line
 72
    65
 73
0
 40
0.000000
  0
ENDTAB
  0
TABLE
  2
LAYER
 70
    8
  0
LAYER
  2
0
 70
    64
 62
7
  6
CONTINUOUS
  0
LAYER
  2
1
 70
    64
 62
7
  6
CONTINUOUS
  0
LAYER
  2
7
 70
    64
 62
7
  6
CONTINUOUS
  0
LAYER
  2
8
 70
    64
 62
7
  6
CONTINUOUS
  0
LAYER
  2
9
 70
    64
 62
7
  6
CONTINUOUS
  0
LAYER
  2
22
 70
    64
 62
7
  6
CONTINUOUS
  0
LAYER
  2
25
 70
    64
 62
7
  6
CONTINUOUS
  0
LAYER
  2
0
 70
    64
 62
7
  6
CONTINUOUS
  0
ENDTAB
  0
TABLE
  2
STYLE
 70
    1
  0
STYLE
  2
ROMANC
70
     0
 40
0.0
 41
1.0
 50
0.0
 71
     0
 42
0.2
  3
ROMANC
  4

  0
ENDTAB
  0
ENDSEC
  0
SECTION
  2
BLOCKS
  0
ENDSEC
  0
SECTION
  2
ENTITIES
  0
TEXT
  8
0
  6
CONTINUOUS
 40
0.100000
 10
286.909000
 20
41.324000
  1
2
  7
ROMANC
  0
TEXT
  8
0
  6
CONTINUOUS
 40
0.300000
 10
283.926000
 20
41.768000
  1
ESCALA  1:50
  7
ROMANC
  0
POLYLINE
  8
0
  6
CONTINUOUS
 66
     1
 70
     1
  0
VERTEX
  8
0
  6
CONTINUOUS
 10
281.396000
 20
44.747000
  0
VERTEX
  8
0
  6
CONTINUOUS
 10
291.896000
 20
44.747000
  0
VERTEX
  8
0
  6
CONTINUOUS
 10
291.896000
 20
29.897000
  0
VERTEX
  8
0
  6
CONTINUOUS
 10
281.396000
 20
29.897000
  0
SEQEND
  8
0
  0
LINE
  8
1
  6
CONTINUOUS
 10
286.413000
 20
33.207000
 11
285.613000
 21
33.207000
  0
TEXT
  8
0
  6
CONTINUOUS
 40
0.300000
 10
283.922000
 20
40.529000
  1
P = 96 dm
  7
ROMANC
  0
TEXT
  8
0
  6
CONTINUOUS
 40
0.300000
 10
283.945000
 20
41.099000
  1
S = 530 dm
  7
ROMANC
  0
ARC
  8
1
  6
CONTINUOUS
 10
286.013000
 20
33.650919
 40
1.706081
 50
-4.839017
 51
184.839019
  0
LINE
  8
1
  6
CONTINUOUS
 10
285.613000
 20
33.207000
 11
285.613000
 21
33.507000
  0
LINE
  8
1
  6
CONTINUOUS
 10
286.413000
 20
33.507000
 11
286.413000
 21
33.207000
  0
LINE
  8
1
  6
CONTINUOUS
 10
287.713000
 20
33.507000
 11
286.413000
 21
33.507000
  0
TEXT
  8
1
  6
CONTINUOUS
 40
0.075000
 10
284.853000
 20
32.940000
  1
1.30
  7
ROMANC
  0
LINE
  8
1
  6
CONTINUOUS
 10
284.815000
 20
32.978000
 11
284.313000
 21
32.978000
  0
LINE
  8
1
  6
CONTINUOUS
 10
285.110000
 20
32.978000
 11
285.613000
 21
32.978000
  0
LINE
  8
1
  6
CONTINUOUS
 10
284.276000
 20
32.959000
 11
284.350000
 21
32.997000
  0
LINE
  8
1
  6
CONTINUOUS
 10
285.650000
 20
32.997000
 11
285.576000
 21
32.959000
  0
LINE
  8
1
  6
CONTINUOUS
 10
284.313000
 20
33.469000
 11
284.313000
 21
32.940000
  0
LINE
  8
1
  6
CONTINUOUS
 10
285.613000
 20
33.169000
 11
285.613000
 21
32.940000
  0
TEXT
  8
1
  6
CONTINUOUS
 40
0.075000
 10
285.894000
 20
32.940000
  1
0.80
  7
ROMANC
  0
LINE
  8
1
  6
CONTINUOUS
 10
285.856000
 20
32.978000
 11
285.613000
 21
32.978000
  0
LINE
  8
1
  6
CONTINUOUS
 10
286.168000
 20
32.978000
 11
286.413000
 21
32.978000
  0
LINE
  8
1
  6
CONTINUOUS
 10
285.576000
 20
32.959000
 11
285.650000
 21
32.997000
  0
LINE
  8
1
  6
CONTINUOUS
 10
286.450000
 20
32.997000
 11
286.376000
 21
32.959000
  0
LINE
  8
1
  6
CONTINUOUS
 10
286.413000
 20
33.169000
 11
286.413000
 21
32.940000
  0
TEXT
  8
1
  6
CONTINUOUS
 40
0.075000
 10
286.953000
 20
32.940000
  1
1.30
  7
ROMANC
  0
LINE
  8
1
  6
CONTINUOUS
 10
286.915000
 20
32.978000
 11
286.413000
 21
32.978000
  0
LINE
  8
1
  6
CONTINUOUS
 10
287.210000
 20
32.978000
 11
287.713000
 21
32.978000
  0
LINE
  8
1
  6
CONTINUOUS
 10
286.376000
 20
32.959000
 11
286.450000
 21
32.997000
  0
LINE
  8
1
  6
CONTINUOUS
 10
287.750000
 20
32.997000
 11
287.676000
 21
32.959000
  0
LINE
  8
1
  6
CONTINUOUS
 10
287.713000
 20
33.469000
 11
287.713000
 21
32.940000
  0
LINE
  8
1
  6
CONTINUOUS
 10
285.613000
 20
33.507000
 11
284.313000
 21
33.507000
  0
TEXT
  8
1
  6
CONTINUOUS
 40
0.075000
 10
285.891000
 20
32.700000
  1
3.40
  7
ROMANC
  0
LINE
  8
1
  6
CONTINUOUS
 10
285.853000
 20
32.737000
 11
284.313000
 21
32.737000
  0
LINE
  8
1
  6
CONTINUOUS
 10
286.172000
 20
32.737000
 11
287.713000
 21
32.737000
  0
LINE
  8
1
  6
CONTINUOUS
 10
284.276000
 20
32.718000
 11
284.350000
 21
32.756000
  0
LINE
  8
1
  6
CONTINUOUS
 10
287.750000
 20
32.756000
 11
287.676000
 21
32.718000
  0
LINE
  8
1
  6
CONTINUOUS
 10
284.313000
 20
33.469000
 11
284.313000
 21
32.699000
  0
LINE
  8
1
  6
CONTINUOUS
 10
287.713000
 20
33.469000
 11
287.713000
 21
32.699000
  0
TEXT
  8
1
  6
CONTINUOUS
 40
0.075000
 10
287.980000
 20
33.246000
  1
0.30
 50
90.000000
  7
ROMANC
  0
LINE
  8
1
  6
CONTINUOUS
 10
287.943000
 20
33.057000
 11
287.943000
 21
33.207000
  0
LINE
  8
1
  6
CONTINUOUS
 10
287.943000
 20
33.657000
 11
287.943000
 21
33.507000
  0
LINE
  8
1
  6
CONTINUOUS
 10
287.924000
 20
33.244000
 11
287.962000
 21
33.170000
  0
LINE
  8
1
  6
CONTINUOUS
 10
287.962000
 20
33.470000
 11
287.924000
 21
33.544000
  0
LINE
  8
1
  6
CONTINUOUS
 10
286.451000
 20
33.207000
 11
287.981000
 21
33.207000
  0
LINE
  8
1
  6
CONTINUOUS
 10
287.751000
 20
33.507000
 11
287.981000
 21
33.507000
  0
TEXT
  8
1
  6
CONTINUOUS
 40
0.075000
 10
288.210000
 20
34.172000
  1
2.15
 50
90.000000
  7
ROMANC
  0
LINE
  8
1
  6
CONTINUOUS
 10
288.172000
 20
34.134000
 11
288.172000
 21
33.207000
  0
LINE
  8
1
  6
CONTINUOUS
 10
288.172000
 20
34.429000
 11
288.172000
 21
35.357000
  0
LINE
  8
1
  6
CONTINUOUS
 10
288.191000
 20
33.170000
 11
288.153000
 21
33.244000
  0
LINE
  8
1
  6
CONTINUOUS
 10
288.153000
 20
35.394000
 11
288.191000
 21
35.320000
  0
LINE
  8
1
  6
CONTINUOUS
 10
286.051000
 20
33.207000
 11
288.210000
 21
33.207000
  0
LINE
  8
1
  6
CONTINUOUS
 10
286.051000
 20
35.357000
 11
288.210000
 21
35.357000
  0
ARC
  8
1
  6
CONTINUOUS
 10
286.013000
 20
33.650919
 40
1.716081
 50
-5.145894
 51
185.145894
  0
ARC
  8
1
  6
CONTINUOUS
 10
286.013000
 20
33.650919
 40
1.726081
 50
-5.449358
 51
185.449358
  0
LINE
  8
1
  6
CONTINUOUS
 10
285.603000
 20
33.497000
 11
284.304000
 21
33.497000
  0
LINE
  8
1
  6
CONTINUOUS
 10
285.593000
 20
33.487000
 11
284.295000
 21
33.487000
  0
LINE
  8
1
  6
CONTINUOUS
 10
285.603000
 20
33.197000
 11
285.603000
 21
33.497000
  0
LINE
  8
1
  6
CONTINUOUS
 10
285.593000
 20
33.187000
 11
285.593000
 21
33.487000
  0
LINE
  8
1
  6
CONTINUOUS
 10
286.423000
 20
33.197000
 11
285.603000
 21
33.197000
  0
LINE
  8
1
  6
CONTINUOUS
 10
286.433000
 20
33.187000
 11
285.593000
 21
33.187000
  0
LINE
  8
1
  6
CONTINUOUS
 10
286.423000
 20
33.497000
 11
286.423000
 21
33.197000
  0
LINE
  8
1
  6
CONTINUOUS
 10
286.433000
 20
33.487000
 11
286.433000
 21
33.187000
  0
LINE
  8
1
  6
CONTINUOUS
 10
287.722000
 20
33.497000
 11
286.423000
 21
33.497000
  0
LINE
  8
1
  6
CONTINUOUS
 10
287.731000
 20
33.487000
 11
286.433000
 21
33.487000
  0
TEXT
  8
0
  6
CONTINUOUS
 40
0.300000
 10
283.926000
 20
42.381000
  1
TIPUS   NT530
  7
ROMANC
  0
ENDSEC
  0
EOF
