  0
SECTION
  2
HEADER
  9
$ACADVER
  1
AC1009
  9
$INSBASE
 10
0.0
 20
0.0
 30
0.0
  9
$EXTMIN
 10
281.396000
 20
29.897000
 30
-2147483.648000
  9
$EXTMAX
 10
291.896000
 20
44.747000
 30
0.000000
  9
$LIMMIN
 10
280.396000
 20
28.897000
  9
$LIMMAX
 10
292.896000
 20
43.747000
  9
$ORTHOMODE
 70
     0
  9
$REGENMODE
 70
     1
  9
$FILLMODE
 70
     1
  9
$QTEXTMODE
 70
     0
  9
$MIRRTEXT
 70
     1
  9
$DRAGMODE
 70
     2
  9
$LTSCALE
 40
1.0
  9
$OSMODE
 70
     0
  9
$ATTMODE
 70
     1
  9
$TEXTSIZE
 40
0.2
  9
$TRACEWID
 40
0.05
  9
$TEXTSTYLE
  7
STANDARD
  9
$CLAYER
  8
0
  9
$CELTYPE
  6
BYLAYER
  9
$CECOLOR
 62
   256
  9
$DIMSCALE
 40
1.0
  9
$DIMASZ
 40
0.18
  9
$DIMEXO
 40
0.0625
  9
$DIMDLI
 40
0.38
  9
$DIMRND
 40
0.0
  9
$DIMDLE
 40
0.0
  9
$DIMEXE
 40
0.18
  9
$DIMTP
 40
0.0
  9
$DIMTM
 40
0.0
  9
$DIMTXT
 40
0.18
  9
$DIMCEN
 40
0.09
  9
$DIMTSZ
 40
0.0
  9
$DIMTOL
 70
     0
  9
$DIMLIM
 70
     0
  9
$DIMTIH
 70
     1
  9
$DIMTOH
 70
     1
  9
$DIMSE1
 70
     0
  9
$DIMSE2
 70
     0
  9
$DIMTAD
 70
     0
  9
$DIMZIN
 70
     0
  9
$DIMBLK
  1

  9
$DIMASO
 70
     1
  9
$DIMSHO
 70
     1
  9
$DIMPOST
  1

  9
$DIMAPOST
  1

  9
$DIMALT
 70
     0
  9
$DIMALTD
 70
     2
  9
$DIMALTF
 40
25.4
  9
$DIMLFAC
 40
1.0
  9
$DIMTOFL
 70
     0
  9
$DIMTVP
 40
0.0
  9
$DIMTIX
 70
     0
  9
$DIMSOXD
 70
     0
  9
$DIMSAH
 70
     0
  9
$DIMBLK1
  1

  9
$DIMBLK2
  1

  9
$DIMSTYLE
  2
*UNNAMED
  9
$DIMCLRD
 70
     0
  9
$DIMCLRE
 70
     0
  9
$DIMCLRT
 70
     0
  9
$DIMTFAC
 40
1.0
  9
$DIMGAP
 40
0.09
  9
$LUNITS
 70
     2
  9
$LUPREC
 70
     4
  9
$AXISMODE
 70
     0
  9
$AXISUNIT
 10
0.0
 20
0.0
  9
$SKETCHINC
 40
0.1
  9
$FILLETRAD
 40
0.0
  9
$AUNITS
 70
     0
  9
$AUPREC
 70
     0
  9
$MENU
  1
acad
  9
$ELEVATION
 40
0.0
  9
$PELEVATION
 40
0.0
  9
$THICKNESS
 40
0.0
  9
$LIMCHECK
 70
     0
  9
$BLIPMODE
 70
     1
  9
$CHAMFERA
 40
0.0
  9
$CHAMFERB
 40
0.0
  9
$SKPOLY
 70
     0
  9
$TDCREATE
 40
2448315.373408102
  9
$TDUPDATE
 40
2448315.373408102
  9
$TDINDWG
 40
0.0000000000
  9
$TDUSRTIMER
 40
0.0000000000
  9
$USRTIMER
 70
     1
  9
$ANGBASE
 50
0.0
  9
$ANGDIR
 70
     0
  9
$PDMODE
 70
     0
  9
$PDSIZE
 40
0.0
  9
$PLINEWID
 40
0.0
  9
$COORDS
 70
     0
  9
$SPLFRAME
 70
     0
  9
$SPLINETYPE
 70
     6
  9
$SPLINESEGS
 70
     8
  9
$ATTDIA
 70
     0
  9
$ATTREQ
 70
     1
  9
$HANDLING
 70
     0
  9
$HANDSEED
  5
0
  9
$SURFTAB1
 70
     6
  9
$SURFTAB2
 70
     6
  9
$SURFTYPE
 70
     6
  9
$SURFU
 70
     6
  9
$SURFV
 70
     6
  9
$UCSNAME
  2

  9
$UCSORG
 10
0.0
 20
0.0
 30
0.0
  9
$UCSXDIR
 10
1.0
 20
0.0
 30
0.0
  9
$UCSYDIR
 10
0.0
 20
1.0
 30
0.0
  9
$PUCSNAME
  2

  9
$PUCSORG
 10
0.0
 20
0.0
 30
0.0
  9
$PUCSXDIR
 10
1.0
 20
0.0
 30
0.0
  9
$PUCSYDIR
 10
0.0
 20
1.0
 30
0.0
  9
$USERI1
 70
     0
  9
$USERI2
 70
     0
  9
$USERI3
 70
     0
  9
$USERI4
 70
     0
  9
$USERI5
 70
     0
  9
$USERR1
 40
0.0
  9
$USERR2
 40
0.0
  9
$USERR3
 40
0.0
  9
$USERR4
 40
0.0
  9
$USERR5
 40
0.0
  9
$WORLDVIEW
 70
     1
  9
$SHADEDGE
 70
     3
  9
$SHADEDIF
 70
    70
  9
$TILEMODE
 70
     1
  9
$MAXACTVP
 70
    16
  9
$PINSBASE
 10
0.0
 20
0.0
 30
0.0
  9
$PLIMCHECK
 70
     0
  9
$PEXTMIN
 10
1.000000E+20
 20
1.000000E+20
 30
1.000000E+20
  9
$PEXTMAX
 10
-1.000000E+20
 20
-1.000000E+20
 30
-1.000000E+20
  9
$PLIMMIN
 10
0.0
 20
0.0
  9
$PLIMMAX
 10
12.0
 20
9.0
  9
$UNITMODE
 70
     0
  9
$VISRETAIN
 70
     0
  0
ENDSEC
  0
SECTION
  2
TABLES
  0
TABLE
  2
LTYPE
 70
    1
  0
LTYPE
  2
CONTINUOUS
 70
    64
3
Solid line
 72
    65
 73
0
 40
0.000000
  0
ENDTAB
  0
TABLE
  2
LAYER
 70
    8
  0
LAYER
  2
0
 70
    64
 62
7
  6
CONTINUOUS
  0
LAYER
  2
1
 70
    64
 62
7
  6
CONTINUOUS
  0
LAYER
  2
7
 70
    64
 62
7
  6
CONTINUOUS
  0
LAYER
  2
8
 70
    64
 62
7
  6
CONTINUOUS
  0
LAYER
  2
9
 70
    64
 62
7
  6
CONTINUOUS
  0
LAYER
  2
22
 70
    64
 62
7
  6
CONTINUOUS
  0
LAYER
  2
25
 70
    64
 62
7
  6
CONTINUOUS
  0
LAYER
  2
0
 70
    64
 62
7
  6
CONTINUOUS
  0
ENDTAB
  0
TABLE
  2
STYLE
 70
    1
  0
STYLE
  2
ROMANC
70
     0
 40
0.0
 41
1.0
 50
0.0
 71
     0
 42
0.2
  3
ROMANC
  4

  0
ENDTAB
  0
ENDSEC
  0
SECTION
  2
BLOCKS
  0
ENDSEC
  0
SECTION
  2
ENTITIES
  0
TEXT
  8
0
  6
CONTINUOUS
 40
0.100000
 10
286.909000
 20
41.324000
  1
2
  7
ROMANC
  0
TEXT
  8
0
  6
CONTINUOUS
 40
0.300000
 10
283.926000
 20
41.768000
  1
ESCALA  1:50
  7
ROMANC
  0
POLYLINE
  8
0
  6
CONTINUOUS
 66
     1
 70
     1
  0
VERTEX
  8
0
  6
CONTINUOUS
 10
281.396000
 20
44.747000
  0
VERTEX
  8
0
  6
CONTINUOUS
 10
291.896000
 20
44.747000
  0
VERTEX
  8
0
  6
CONTINUOUS
 10
291.896000
 20
29.897000
  0
VERTEX
  8
0
  6
CONTINUOUS
 10
281.396000
 20
29.897000
  0
SEQEND
  8
0
  0
ARC
  8
1
  6
CONTINUOUS
 10
286.339000
 20
33.693692
 40
1.342308
 50
31.048222
 51
148.951778
  0
LINE
  8
1
  6
CONTINUOUS
 10
286.689000
 20
32.686000
 11
286.689000
 21
32.586000
  0
ARC
  8
1
  6
CONTINUOUS
 10
286.339000
 20
32.539125
 40
0.353125
 50
172.371850
 51
367.628150
  0
LINE
  8
1
  6
CONTINUOUS
 10
285.989000
 20
32.586000
 11
285.989000
 21
32.686000
  0
TEXT
  8
0
  6
CONTINUOUS
 40
0.300000
 10
283.922000
 20
40.529000
  1
P = 92 dm
  7
ROMANC
  0
TEXT
  8
0
  6
CONTINUOUS
 40
0.300000
 10
283.945000
 20
41.099000
  1
S = 527 dm
  7
ROMANC
  0
LINE
  8
1
  6
CONTINUOUS
 10
285.989000
 20
32.686000
 11
285.189000
 21
32.686000
  0
LINE
  8
1
  6
CONTINUOUS
 10
287.489000
 20
32.686000
 11
286.689000
 21
32.686000
  0
TEXT
  8
1
  6
CONTINUOUS
 40
0.075000
 10
286.220000
 20
31.962000
  1
0.70
  7
ROMANC
  0
LINE
  8
1
  6
CONTINUOUS
 10
286.182000
 20
31.999000
 11
285.989000
 21
31.999000
  0
LINE
  8
1
  6
CONTINUOUS
 10
286.494000
 20
31.999000
 11
286.689000
 21
31.999000
  0
LINE
  8
1
  6
CONTINUOUS
 10
285.952000
 20
31.980000
 11
286.026000
 21
32.018000
  0
LINE
  8
1
  6
CONTINUOUS
 10
286.726000
 20
32.018000
 11
286.652000
 21
31.980000
  0
LINE
  8
1
  6
CONTINUOUS
 10
285.989000
 20
32.648000
 11
285.989000
 21
31.961000
  0
LINE
  8
1
  6
CONTINUOUS
 10
286.689000
 20
32.648000
 11
286.689000
 21
31.961000
  0
LINE
  8
1
  6
CONTINUOUS
 10
285.189000
 20
32.686000
 11
285.189000
 21
34.386000
  0
TEXT
  8
1
  6
CONTINUOUS
 40
0.075000
 10
286.220000
 20
31.776000
  1
2.30
  7
ROMANC
  0
LINE
  8
1
  6
CONTINUOUS
 10
286.182000
 20
31.814000
 11
285.189000
 21
31.814000
  0
LINE
  8
1
  6
CONTINUOUS
 10
286.494000
 20
31.814000
 11
287.489000
 21
31.814000
  0
LINE
  8
1
  6
CONTINUOUS
 10
285.152000
 20
31.795000
 11
285.226000
 21
31.833000
  0
LINE
  8
1
  6
CONTINUOUS
 10
287.526000
 20
31.833000
 11
287.452000
 21
31.795000
  0
LINE
  8
1
  6
CONTINUOUS
 10
285.189000
 20
32.648000
 11
285.189000
 21
31.776000
  0
LINE
  8
1
  6
CONTINUOUS
 10
287.489000
 20
32.648000
 11
287.489000
 21
31.776000
  0
LINE
  8
1
  6
CONTINUOUS
 10
287.489000
 20
34.386000
 11
287.489000
 21
32.686000
  0
TEXT
  8
1
  6
CONTINUOUS
 40
0.075000
 10
287.748000
 20
32.317000
  1
0.50
 50
90.000000
  7
ROMANC
  0
LINE
  8
1
  6
CONTINUOUS
 10
287.710000
 20
32.036000
 11
287.710000
 21
32.186000
  0
LINE
  8
1
  6
CONTINUOUS
 10
287.710000
 20
32.836000
 11
287.710000
 21
32.686000
  0
LINE
  8
1
  6
CONTINUOUS
 10
287.691000
 20
32.224000
 11
287.729000
 21
32.148000
  0
LINE
  8
1
  6
CONTINUOUS
 10
287.729000
 20
32.648000
 11
287.691000
 21
32.724000
  0
LINE
  8
1
  6
CONTINUOUS
 10
286.377000
 20
32.186000
 11
287.748000
 21
32.186000
  0
LINE
  8
1
  6
CONTINUOUS
 10
287.527000
 20
32.686000
 11
287.748000
 21
32.686000
  0
TEXT
  8
1
  6
CONTINUOUS
 40
0.075000
 10
287.748000
 20
33.426000
  1
1.70
 50
90.000000
  7
ROMANC
  0
LINE
  8
1
  6
CONTINUOUS
 10
287.710000
 20
33.388000
 11
287.710000
 21
32.686000
  0
LINE
  8
1
  6
CONTINUOUS
 10
287.710000
 20
33.683000
 11
287.710000
 21
34.386000
  0
LINE
  8
1
  6
CONTINUOUS
 10
287.729000
 20
32.648000
 11
287.691000
 21
32.724000
  0
LINE
  8
1
  6
CONTINUOUS
 10
287.691000
 20
34.424000
 11
287.729000
 21
34.348000
  0
LINE
  8
1
  6
CONTINUOUS
 10
287.527000
 20
34.386000
 11
287.748000
 21
34.386000
  0
TEXT
  8
1
  6
CONTINUOUS
 40
0.075000
 10
288.028000
 20
33.492000
  1
2.85
 50
90.000000
  7
ROMANC
  0
LINE
  8
1
  6
CONTINUOUS
 10
287.991000
 20
33.454000
 11
287.991000
 21
32.186000
  0
LINE
  8
1
  6
CONTINUOUS
 10
287.991000
 20
33.766000
 11
287.991000
 21
35.036000
  0
LINE
  8
1
  6
CONTINUOUS
 10
288.010000
 20
32.148000
 11
287.972000
 21
32.224000
  0
LINE
  8
1
  6
CONTINUOUS
 10
287.972000
 20
35.074000
 11
288.010000
 21
34.998000
  0
LINE
  8
1
  6
CONTINUOUS
 10
286.377000
 20
32.186000
 11
288.029000
 21
32.186000
  0
LINE
  8
1
  6
CONTINUOUS
 10
286.377000
 20
35.036000
 11
288.029000
 21
35.036000
  0
ARC
  8
1
  6
CONTINUOUS
 10
286.339000
 20
33.693692
 40
1.352308
 50
30.930328
 51
149.069672
  0
ARC
  8
1
  6
CONTINUOUS
 10
286.339000
 20
33.693692
 40
1.362308
 50
30.813769
 51
149.186231
  0
LINE
  8
1
  6
CONTINUOUS
 10
287.499000
 20
34.389000
 11
287.499000
 21
32.676000
  0
LINE
  8
1
  6
CONTINUOUS
 10
287.509000
 20
34.392000
 11
287.509000
 21
32.666000
  0
LINE
  8
1
  6
CONTINUOUS
 10
287.499000
 20
32.676000
 11
286.699000
 21
32.676000
  0
LINE
  8
1
  6
CONTINUOUS
 10
287.509000
 20
32.666000
 11
286.709000
 21
32.666000
  0
LINE
  8
1
  6
CONTINUOUS
 10
286.699000
 20
32.676000
 11
286.699000
 21
32.586000
  0
LINE
  8
1
  6
CONTINUOUS
 10
286.709000
 20
32.666000
 11
286.709000
 21
32.586000
  0
ARC
  8
1
  6
CONTINUOUS
 10
286.339000
 20
32.539125
 40
0.363125
 50
172.371850
 51
367.628150
  0
ARC
  8
1
  6
CONTINUOUS
 10
286.339000
 20
32.539125
 40
0.373125
 50
172.371850
 51
367.628150
  0
LINE
  8
1
  6
CONTINUOUS
 10
285.979000
 20
32.586000
 11
285.979000
 21
32.676000
  0
LINE
  8
1
  6
CONTINUOUS
 10
285.969000
 20
32.586000
 11
285.969000
 21
32.666000
  0
LINE
  8
1
  6
CONTINUOUS
 10
285.979000
 20
32.676000
 11
285.179000
 21
32.676000
  0
LINE
  8
1
  6
CONTINUOUS
 10
285.969000
 20
32.666000
 11
285.169000
 21
32.666000
  0
LINE
  8
1
  6
CONTINUOUS
 10
285.179000
 20
32.676000
 11
285.179000
 21
34.389000
  0
LINE
  8
1
  6
CONTINUOUS
 10
285.169000
 20
32.666000
 11
285.169000
 21
34.392000
  0
TEXT
  8
0
  6
CONTINUOUS
 40
0.300000
 10
283.926000
 20
42.381000
  1
TIPUS   NT527
  7
ROMANC
  0
ENDSEC
  0
EOF
