  0
SECTION
  2
HEADER
  9
$ACADVER
  1
AC1009
  9
$INSBASE
 10
142.658156
 20
-19.972509
 30
0.0
  9
$EXTMIN
 10
22.591444
 20
-21.448265
 30
0.0
  9
$EXTMAX
 10
228.671302
 20
98.615031
 30
0.0
  9
$LIMMIN
 10
0.0
 20
0.0
  9
$LIMMAX
 10
410.0
 20
287.0
  9
$ORTHOMODE
 70
     0
  9
$REGENMODE
 70
     1
  9
$FILLMODE
 70
     1
  9
$QTEXTMODE
 70
     0
  9
$MIRRTEXT
 70
     1
  9
$DRAGMODE
 70
     2
  9
$LTSCALE
 40
25.0
  9
$OSMODE
 70
    32
  9
$ATTMODE
 70
     1
  9
$TEXTSIZE
 40
0.1
  9
$TRACEWID
 40
1.0
  9
$TEXTSTYLE
  7
ROMANC
  9
$CLAYER
  8
0
  9
$CELTYPE
  6
BYLAYER
  9
$CECOLOR
 62
   256
  9
$DIMSCALE
 40
0.0
  9
$DIMASZ
 40
0.0
  9
$DIMEXO
 40
0.1
  9
$DIMDLI
 40
7.0
  9
$DIMRND
 40
0.0
  9
$DIMDLE
 40
0.0
  9
$DIMEXE
 40
1.8
  9
$DIMTP
 40
0.0
  9
$DIMTM
 40
0.0
  9
$DIMTXT
 40
0.03
  9
$DIMCEN
 40
1.5
  9
$DIMTSZ
 40
1.0
  9
$DIMTOL
 70
     0
  9
$DIMLIM
 70
     0
  9
$DIMTIH
 70
     0
  9
$DIMTOH
 70
     0
  9
$DIMSE1
 70
     0
  9
$DIMSE2
 70
     0
  9
$DIMTAD
 70
     0
  9
$DIMZIN
 70
     0
  9
$DIMBLK
  1

  9
$DIMASO
 70
     1
  9
$DIMSHO
 70
     0
  9
$DIMPOST
  1

  9
$DIMAPOST
  1

  9
$DIMALT
 70
     0
  9
$DIMALTD
 70
     2
  9
$DIMALTF
 40
25.4
  9
$DIMLFAC
 40
1.0
  9
$DIMTOFL
 70
     1
  9
$DIMTVP
 40
0.0
  9
$DIMTIX
 70
     1
  9
$DIMSOXD
 70
     0
  9
$DIMSAH
 70
     0
  9
$DIMBLK1
  1

  9
$DIMBLK2
  1

  9
$DIMSTYLE
  2
*UNNAMED
  9
$DIMCLRD
 70
     0
  9
$DIMCLRE
 70
     0
  9
$DIMCLRT
 70
     0
  9
$DIMTFAC
 40
116.666667
  9
$DIMGAP
 40
0.09
  9
$LUNITS
 70
     2
  9
$LUPREC
 70
     2
  9
$SKETCHINC
 40
1.0
  9
$FILLETRAD
 40
0.0
  9
$AUNITS
 70
     0
  9
$AUPREC
 70
     0
  9
$MENU
  1
acad
  9
$ELEVATION
 40
0.0
  9
$PELEVATION
 40
0.0
  9
$THICKNESS
 40
0.0
  9
$LIMCHECK
 70
     0
  9
$BLIPMODE
 70
     0
  9
$CHAMFERA
 40
0.0
  9
$CHAMFERB
 40
0.0
  9
$SKPOLY
 70
     0
  9
$TDCREATE
 40
2449967.376143634
  9
$TDUPDATE
 40
2450207.451065972
  9
$TDINDWG
 40
0.0001875000
  9
$TDUSRTIMER
 40
0.0001875000
  9
$USRTIMER
 70
     1
  9
$ANGBASE
 50
0.0
  9
$ANGDIR
 70
     0
  9
$PDMODE
 70
     0
  9
$PDSIZE
 40
0.0
  9
$PLINEWID
 40
0.0
  9
$COORDS
 70
     2
  9
$SPLFRAME
 70
     0
  9
$SPLINETYPE
 70
     6
  9
$SPLINESEGS
 70
     8
  9
$ATTDIA
 70
     0
  9
$ATTREQ
 70
     1
  9
$HANDLING
 70
     0
  9
$HANDSEED
  5
0
  9
$SURFTAB1
 70
     6
  9
$SURFTAB2
 70
     6
  9
$SURFTYPE
 70
     6
  9
$SURFU
 70
     6
  9
$SURFV
 70
     6
  9
$UCSNAME
  2

  9
$UCSORG
 10
0.0
 20
0.0
 30
0.0
  9
$UCSXDIR
 10
1.0
 20
0.0
 30
0.0
  9
$UCSYDIR
 10
0.0
 20
1.0
 30
0.0
  9
$PUCSNAME
  2

  9
$PUCSORG
 10
0.0
 20
0.0
 30
0.0
  9
$PUCSXDIR
 10
1.0
 20
0.0
 30
0.0
  9
$PUCSYDIR
 10
0.0
 20
1.0
 30
0.0
  9
$USERI1
 70
     0
  9
$USERI2
 70
     0
  9
$USERI3
 70
     0
  9
$USERI4
 70
     0
  9
$USERI5
 70
     0
  9
$USERR1
 40
0.0
  9
$USERR2
 40
0.0
  9
$USERR3
 40
0.0
  9
$USERR4
 40
0.0
  9
$USERR5
 40
0.0
  9
$WORLDVIEW
 70
     1
  9
$SHADEDGE
 70
     3
  9
$SHADEDIF
 70
    70
  9
$TILEMODE
 70
     1
  9
$MAXACTVP
 70
    16
  9
$PINSBASE
 10
0.0
 20
0.0
 30
0.0
  9
$PLIMCHECK
 70
     0
  9
$PEXTMIN
 10
1.000000E+20
 20
1.000000E+20
 30
1.000000E+20
  9
$PEXTMAX
 10
-1.000000E+20
 20
-1.000000E+20
 30
-1.000000E+20
  9
$PLIMMIN
 10
0.0
 20
0.0
  9
$PLIMMAX
 10
12.0
 20
9.0
  9
$UNITMODE
 70
     0
  9
$VISRETAIN
 70
     0
  9
$PLINEGEN
 70
     0
  9
$PSLTSCALE
 70
     0
  9
$TREEDEPTH
 70
  3020
  9
$DWGCODEPAGE
  3
iso8859-1
  0
ENDSEC
  0
SECTION
  2
TABLES
  0
TABLE
  2
VPORT
 70
     1
  0
VPORT
  2
*ACTIVE
 70
     0
 10
0.0
 20
0.0
 11
1.0
 21
1.0
 12
144.953061
 22
-12.407698
 13
0.0
 23
0.0
 14
1.0
 24
1.0
 15
10.0
 25
10.0
 16
0.0
 26
0.0
 36
1.0
 17
0.0
 27
0.0
 37
0.0
 40
19.168841
 41
1.65
 42
50.0
 43
0.0
 44
0.0
 50
0.0
 51
0.0
 71
     0
 72
   100
 73
     1
 74
     0
 75
     0
 76
     0
 77
     0
 78
     2
  0
ENDTAB
  0
TABLE
  2
LTYPE
 70
     1
  0
LTYPE
  2
CONTINUOUS
 70
    64
  3
Solid line
 72
    65
 73
     0
 40
0.0
  0
ENDTAB
  0
TABLE
  2
LAYER
 70
     2
  0
LAYER
  2
0
 70
    64
 62
     7
  6
CONTINUOUS
  0
LAYER
  2
MESURA
 70
    64
 62
     7
  6
CONTINUOUS
  0
ENDTAB
  0
TABLE
  2
STYLE
 70
     2
  0
STYLE
  2
STANDARD
 70
     0
 40
0.0
 41
1.0
 50
0.0
 71
     0
 42
0.1
  3
txt
  4

  0
STYLE
  2
ROMANC
 70
    64
 40
0.0
 41
1.0
 50
0.0
 71
     0
 42
0.1
  3
romanc
  4

  0
ENDTAB
  0
TABLE
  2
VIEW
 70
     0
  0
ENDTAB
  0
TABLE
  2
UCS
 70
     0
  0
ENDTAB
  0
TABLE
  2
APPID
 70
     1
  0
APPID
  2
ACAD
 70
    64
  0
ENDTAB
  0
TABLE
  2
DIMSTYLE
 70
     0
  0
ENDTAB
  0
ENDSEC
  0
SECTION
  2
BLOCKS
  0
ENDSEC
  0
SECTION
  2
ENTITIES
  0
LINE
  8
MESURA
  6
BYBLOCK
 62
     0
 10
148.857253
 20
-16.302451
 30
0.0
 11
149.057253
 21
-16.102451
 31
0.0
  0
LINE
  8
MESURA
  6
BYBLOCK
 62
     0
 10
148.857253
 20
-13.502451
 30
0.0
 11
149.057253
 21
-13.302451
 31
0.0
  0
LINE
  8
MESURA
  6
BYBLOCK
 62
     0
 10
148.857253
 20
-14.702451
 30
0.0
 11
149.057253
 21
-14.502451
 31
0.0
  0
LINE
  8
0
 10
147.205441
 20
-13.402451
 30
0.0
 11
148.957253
 21
-13.402451
 31
0.0
  0
LINE
  8
0
 10
148.330441
 20
-16.202451
 30
0.0
 11
149.89796
 21
-16.202451
 31
0.0
  0
LINE
  8
0
 10
148.330441
 20
-14.602451
 30
0.0
 11
148.957253
 21
-14.602451
 31
0.0
  0
LINE
  8
0
 10
142.658156
 20
-19.972509
 30
0.0
 11
153.158156
 21
-19.972509
 31
0.0
  0
LINE
  8
0
 10
146.080441
 20
-16.834016
 30
0.0
 11
146.080441
 21
-17.972075
 31
0.0
  0
LINE
  8
0
 10
148.330441
 20
-16.834016
 30
0.0
 11
148.330441
 21
-17.972075
 31
0.0
  0
TEXT
  8
0
 10
146.981483
 20
-18.316566
 30
0.0
 40
0.1
  1
2.25
  7
ROMANC
  0
LINE
  8
MESURA
  6
BYBLOCK
 62
     0
 10
148.230441
 20
-18.072075
 30
0.0
 11
148.430441
 21
-17.872075
 31
0.0
  0
LINE
  8
MESURA
  6
BYBLOCK
 62
     0
 10
145.980441
 20
-18.072075
 30
0.0
 11
146.180441
 21
-17.872075
 31
0.0
  0
LINE
  8
0
 10
148.330441
 20
-17.972075
 30
0.0
 11
146.080441
 21
-17.972075
 31
0.0
  0
TEXT
  8
0
 10
145.061872
 20
-16.04585
 30
0.0
 40
0.1
  1
0.6
  7
ROMANC
  0
TEXT
  8
0
 10
146.472198
 20
-17.181208
 30
0.0
 40
0.1
  1
1.00
  7
ROMANC
  0
TEXT
  8
0
 10
147.529943
 20
-17.142057
 30
0.0
 40
0.1
  1
1.25
  7
ROMANC
  0
LINE
  8
MESURA
  6
BYBLOCK
 62
     0
 10
145.429024
 20
-15.697776
 30
0.0
 11
145.629024
 21
-15.497776
 31
0.0
  0
LINE
  8
MESURA
  6
BYBLOCK
 62
     0
 10
145.429024
 20
-16.302451
 30
0.0
 11
145.629024
 21
-16.102451
 31
0.0
  0
LINE
  8
MESURA
  6
BYBLOCK
 62
     0
 10
145.980441
 20
-16.934016
 30
0.0
 11
146.180441
 21
-16.734016
 31
0.0
  0
LINE
  8
MESURA
  6
BYBLOCK
 62
     0
 10
146.980441
 20
-16.934016
 30
0.0
 11
147.180441
 21
-16.734016
 31
0.0
  0
LINE
  8
MESURA
  6
BYBLOCK
 62
     0
 10
148.230441
 20
-16.934016
 30
0.0
 11
148.430441
 21
-16.734016
 31
0.0
  0
LINE
  8
0
 10
147.080441
 20
-16.202451
 30
0.0
 11
145.529024
 21
-16.202451
 31
0.0
  0
LINE
  8
0
 10
146.080441
 20
-15.597776
 30
0.0
 11
145.529024
 21
-15.597776
 31
0.0
  0
LINE
  8
0
 10
145.529024
 20
-15.597776
 30
0.0
 11
145.529024
 21
-16.202451
 31
0.0
  0
LINE
  8
0
 10
146.080441
 20
-15.597776
 30
0.0
 11
146.080441
 21
-16.834016
 31
0.0
  0
LINE
  8
0
 10
147.080441
 20
-16.202451
 30
0.0
 11
147.080441
 21
-16.834016
 31
0.0
  0
LINE
  8
0
 10
148.330441
 20
-16.202451
 30
0.0
 11
148.330441
 21
-16.834016
 31
0.0
  0
LINE
  8
0
 10
148.330441
 20
-16.834016
 30
0.0
 11
146.080441
 21
-16.834016
 31
0.0
  0
TEXT
  8
0
 10
150.115543
 20
-14.753891
 30
0.0
 40
0.1
  1
2.8
  7
ROMANC
  0
TEXT
  8
0
 10
149.175325
 20
-14.166637
 30
0.0
 40
0.1
  1
1.2
  7
ROMANC
  0
TEXT
  8
0
 10
149.175325
 20
-15.341145
 30
0.0
 40
0.1
  1
1.6
  7
ROMANC
  0
LINE
  8
MESURA
  6
BYBLOCK
 62
     0
 10
149.79796
 20
-16.302451
 30
0.0
 11
149.99796
 21
-16.102451
 31
0.0
  0
LINE
  8
MESURA
  6
BYBLOCK
 62
     0
 10
149.79796
 20
-13.502451
 30
0.0
 11
149.99796
 21
-13.302451
 31
0.0
  0
LINE
  8
0
 10
148.957253
 20
-13.402451
 30
0.0
 11
149.89796
 21
-13.402451
 31
0.0
  0
LINE
  8
0
 10
149.89796
 20
-16.202451
 30
0.0
 11
149.89796
 21
-13.402451
 31
0.0
  0
LINE
  8
0
 10
148.957253
 20
-16.202451
 30
0.0
 11
148.957253
 21
-13.402451
 31
0.0
  0
TEXT
  8
0
 10
145.178179
 20
-9.360817
 30
0.0
 40
0.3
  1
P = 91 dm
  7
ROMANC
  0
TEXT
  8
0
 10
148.709054
 20
-8.305038
 30
0.0
 40
0.1
  1
2
  7
ROMANC
  0
TEXT
  8
0
 10
145.201223
 20
-8.610954
 30
0.0
 40
0.3
  1
S =  512 dm
  7
ROMANC
  0
TEXT
  8
0
 10
145.188128
 20
-7.52665
 30
0.0
 40
0.3
  1
TIPUS   NT512
  7
ROMANC
  0
TEXT
  8
0
 10
145.188128
 20
-8.012364
 30
0.0
 40
0.3
  1
ESCALA  1:50
  7
ROMANC
  0
LINE
  8
0
 10
142.658156
 20
-5.122509
 30
0.0
 11
142.658156
 21
-19.972509
 31
0.0
  0
LINE
  8
0
 10
153.158156
 20
-19.972509
 30
0.0
 11
153.158156
 21
-5.122509
 31
0.0
  0
LINE
  8
0
 10
153.158156
 20
-5.122509
 30
0.0
 11
142.658156
 21
-5.122509
 31
0.0
  0
ARC
  8
0
 10
146.080441
 20
-14.602451
 30
0.0
 40
0.0
 50
0.0
 51
0.0
  0
LINE
  8
0
 10
147.080441
 20
-15.597776
 30
0.0
 11
147.080441
 21
-16.202451
 31
0.0
  0
LINE
  8
0
 10
147.080441
 20
-16.202451
 30
0.0
 11
148.330441
 21
-16.202451
 31
0.0
  0
LINE
  8
0
 10
148.330441
 20
-16.202451
 30
0.0
 11
148.330441
 21
-14.602451
 31
0.0
  0
ARC
  8
0
 10
147.052031
 20
-14.602451
 30
0.0
 40
1.27841
 50
0.0
 51
21.222447
  0
ARC
  8
0
 10
147.126817
 20
-14.57341
 30
0.0
 40
1.198184
 50
21.222447
 51
43.15239
  0
ARC
  8
0
 10
147.174662
 20
-14.528555
 30
0.0
 40
1.132601
 50
43.15239
 51
66.162826
  0
ARC
  8
0
 10
147.205441
 20
-14.458892
 30
0.0
 40
1.056441
 50
66.162826
 51
90.0
  0
ARC
  8
0
 10
147.205441
 20
-14.458892
 30
0.0
 40
1.056441
 50
90.0
 51
113.837174
  0
ARC
  8
0
 10
147.23622
 20
-14.528555
 30
0.0
 40
1.132601
 50
113.837174
 51
136.84761
  0
ARC
  8
0
 10
147.284065
 20
-14.57341
 30
0.0
 40
1.198184
 50
136.84761
 51
158.777553
  0
ARC
  8
0
 10
147.358851
 20
-14.602451
 30
0.0
 40
1.27841
 50
158.777553
 51
180.0
  0
LINE
  8
0
 10
146.080441
 20
-14.602451
 30
0.0
 11
146.080441
 21
-15.597776
 31
0.0
  0
LINE
  8
0
 10
146.080441
 20
-15.597776
 30
0.0
 11
147.080441
 21
-15.597776
 31
0.0
  0
LINE
  8
0
 10
147.070441
 20
-15.607776
 30
0.0
 11
147.070441
 21
-16.212451
 31
0.0
  0
LINE
  8
0
 10
147.070441
 20
-16.212451
 30
0.0
 11
148.340441
 21
-16.212451
 31
0.0
  0
LINE
  8
0
 10
148.340441
 20
-16.212451
 30
0.0
 11
148.340441
 21
-14.602451
 31
0.0
  0
ARC
  8
0
 10
147.052031
 20
-14.602451
 30
0.0
 40
1.28841
 50
0.0
 51
21.222447
  0
ARC
  8
0
 10
147.126817
 20
-14.57341
 30
0.0
 40
1.208184
 50
21.222447
 51
43.15239
  0
ARC
  8
0
 10
147.174662
 20
-14.528555
 30
0.0
 40
1.142601
 50
43.15239
 51
66.162826
  0
ARC
  8
0
 10
147.205441
 20
-14.458892
 30
0.0
 40
1.066441
 50
66.162826
 51
90.0
  0
ARC
  8
0
 10
147.205441
 20
-14.458892
 30
0.0
 40
1.066441
 50
90.0
 51
113.837174
  0
ARC
  8
0
 10
147.23622
 20
-14.528555
 30
0.0
 40
1.142601
 50
113.837174
 51
136.84761
  0
ARC
  8
0
 10
147.284065
 20
-14.57341
 30
0.0
 40
1.208184
 50
136.84761
 51
158.777553
  0
ARC
  8
0
 10
147.358851
 20
-14.602451
 30
0.0
 40
1.28841
 50
158.777553
 51
180.0
  0
LINE
  8
0
 10
146.070441
 20
-14.602451
 30
0.0
 11
146.070441
 21
-15.607776
 31
0.0
  0
LINE
  8
0
 10
146.070441
 20
-15.607776
 30
0.0
 11
147.070441
 21
-15.607776
 31
0.0
  0
LINE
  8
0
 10
147.090441
 20
-15.587776
 30
0.0
 11
147.090441
 21
-16.192451
 31
0.0
  0
LINE
  8
0
 10
147.090441
 20
-16.192451
 30
0.0
 11
148.320441
 21
-16.192451
 31
0.0
  0
LINE
  8
0
 10
148.320441
 20
-16.192451
 30
0.0
 11
148.320441
 21
-14.602451
 31
0.0
  0
ARC
  8
0
 10
147.052031
 20
-14.602451
 30
0.0
 40
1.26841
 50
0.0
 51
21.222447
  0
ARC
  8
0
 10
147.126817
 20
-14.57341
 30
0.0
 40
1.188184
 50
21.222447
 51
43.15239
  0
ARC
  8
0
 10
147.174662
 20
-14.528555
 30
0.0
 40
1.122601
 50
43.15239
 51
66.162826
  0
ARC
  8
0
 10
147.205441
 20
-14.458892
 30
0.0
 40
1.046441
 50
66.162826
 51
90.0
  0
ARC
  8
0
 10
147.205441
 20
-14.458892
 30
0.0
 40
1.046441
 50
90.0
 51
113.837174
  0
ARC
  8
0
 10
147.23622
 20
-14.528555
 30
0.0
 40
1.122601
 50
113.837174
 51
136.84761
  0
ARC
  8
0
 10
147.284065
 20
-14.57341
 30
0.0
 40
1.188184
 50
136.84761
 51
158.777553
  0
ARC
  8
0
 10
147.358851
 20
-14.602451
 30
0.0
 40
1.26841
 50
158.777553
 51
180.0
  0
LINE
  8
0
 10
146.090441
 20
-14.602451
 30
0.0
 11
146.090441
 21
-15.587776
 31
0.0
  0
LINE
  8
0
 10
146.090441
 20
-15.587776
 30
0.0
 11
147.090441
 21
-15.587776
 31
0.0
  0
ENDSEC
  0
EOF
