  0
SECTION
  2
HEADER
  9
$ACADVER
  1
AC1009
  9
$INSBASE
 10
105.464027
 20
-4.528761
 30
0.0
  9
$EXTMIN
 10
281.395795
 20
29.897444
 30
0.0
  9
$EXTMAX
 10
291.895795
 20
44.747444
 30
0.0
  9
$LIMMIN
 10
0.0
 20
0.0
  9
$LIMMAX
 10
410.0
 20
287.0
  9
$ORTHOMODE
 70
     1
  9
$REGENMODE
 70
     1
  9
$FILLMODE
 70
     1
  9
$QTEXTMODE
 70
     0
  9
$MIRRTEXT
 70
     1
  9
$DRAGMODE
 70
     2
  9
$LTSCALE
 40
25.0
  9
$OSMODE
 70
     0
  9
$ATTMODE
 70
     1
  9
$TEXTSIZE
 40
0.1
  9
$TRACEWID
 40
1.0
  9
$TEXTSTYLE
  7
ROMANC
  9
$CLAYER
  8
0
  9
$CELTYPE
  6
BYLAYER
  9
$CECOLOR
 62
   256
  9
$DIMSCALE
 40
1.5
  9
$DIMASZ
 40
0.1
  9
$DIMEXO
 40
0.01
  9
$DIMDLI
 40
7.0
  9
$DIMRND
 40
0.0
  9
$DIMDLE
 40
0.0
  9
$DIMEXE
 40
0.01
  9
$DIMTP
 40
0.0
  9
$DIMTM
 40
0.0
  9
$DIMTXT
 40
0.05
  9
$DIMCEN
 40
0.1
  9
$DIMTSZ
 40
0.0
  9
$DIMTOL
 70
     0
  9
$DIMLIM
 70
     0
  9
$DIMTIH
 70
     0
  9
$DIMTOH
 70
     0
  9
$DIMSE1
 70
     0
  9
$DIMSE2
 70
     0
  9
$DIMTAD
 70
     1
  9
$DIMZIN
 70
     0
  9
$DIMBLK
  1

  9
$DIMASO
 70
     1
  9
$DIMSHO
 70
     0
  9
$DIMPOST
  1

  9
$DIMAPOST
  1

  9
$DIMALT
 70
     0
  9
$DIMALTD
 70
     2
  9
$DIMALTF
 40
25.4
  9
$DIMLFAC
 40
1.0
  9
$DIMTOFL
 70
     1
  9
$DIMTVP
 40
0.0
  9
$DIMTIX
 70
     1
  9
$DIMSOXD
 70
     0
  9
$DIMSAH
 70
     0
  9
$DIMBLK1
  1

  9
$DIMBLK2
  1

  9
$DIMSTYLE
  2
*UNNAMED
  9
$DIMCLRD
 70
     0
  9
$DIMCLRE
 70
     0
  9
$DIMCLRT
 70
     0
  9
$DIMTFAC
 40
70.0
  9
$DIMGAP
 40
0.09
  9
$LUNITS
 70
     2
  9
$LUPREC
 70
     2
  9
$SKETCHINC
 40
1.0
  9
$FILLETRAD
 40
0.0
  9
$AUNITS
 70
     0
  9
$AUPREC
 70
     0
  9
$MENU
  1
acad
  9
$ELEVATION
 40
0.0
  9
$PELEVATION
 40
0.0
  9
$THICKNESS
 40
0.0
  9
$LIMCHECK
 70
     0
  9
$BLIPMODE
 70
     0
  9
$CHAMFERA
 40
0.0
  9
$CHAMFERB
 40
0.0
  9
$SKPOLY
 70
     0
  9
$TDCREATE
 40
2450305.554557986
  9
$TDUPDATE
 40
2450855.409853472
  9
$TDINDWG
 40
0.0929443287
  9
$TDUSRTIMER
 40
0.0929443287
  9
$USRTIMER
 70
     1
  9
$ANGBASE
 50
0.0
  9
$ANGDIR
 70
     0
  9
$PDMODE
 70
     0
  9
$PDSIZE
 40
0.0
  9
$PLINEWID
 40
0.0
  9
$COORDS
 70
     2
  9
$SPLFRAME
 70
     0
  9
$SPLINETYPE
 70
     6
  9
$SPLINESEGS
 70
     8
  9
$ATTDIA
 70
     0
  9
$ATTREQ
 70
     1
  9
$HANDLING
 70
     0
  9
$HANDSEED
  5
0
  9
$SURFTAB1
 70
     6
  9
$SURFTAB2
 70
     6
  9
$SURFTYPE
 70
     6
  9
$SURFU
 70
     6
  9
$SURFV
 70
     6
  9
$UCSNAME
  2

  9
$UCSORG
 10
0.0
 20
0.0
 30
0.0
  9
$UCSXDIR
 10
1.0
 20
0.0
 30
0.0
  9
$UCSYDIR
 10
0.0
 20
1.0
 30
0.0
  9
$PUCSNAME
  2

  9
$PUCSORG
 10
0.0
 20
0.0
 30
0.0
  9
$PUCSXDIR
 10
1.0
 20
0.0
 30
0.0
  9
$PUCSYDIR
 10
0.0
 20
1.0
 30
0.0
  9
$USERI1
 70
     0
  9
$USERI2
 70
     0
  9
$USERI3
 70
     0
  9
$USERI4
 70
     0
  9
$USERI5
 70
     0
  9
$USERR1
 40
0.0
  9
$USERR2
 40
0.0
  9
$USERR3
 40
0.0
  9
$USERR4
 40
0.0
  9
$USERR5
 40
0.0
  9
$WORLDVIEW
 70
     1
  9
$SHADEDGE
 70
     3
  9
$SHADEDIF
 70
    70
  9
$TILEMODE
 70
     1
  9
$MAXACTVP
 70
    16
  9
$PINSBASE
 10
0.0
 20
0.0
 30
0.0
  9
$PLIMCHECK
 70
     0
  9
$PEXTMIN
 10
1.000000E+20
 20
1.000000E+20
 30
1.000000E+20
  9
$PEXTMAX
 10
-1.000000E+20
 20
-1.000000E+20
 30
-1.000000E+20
  9
$PLIMMIN
 10
0.0
 20
0.0
  9
$PLIMMAX
 10
12.0
 20
9.0
  9
$UNITMODE
 70
     0
  9
$VISRETAIN
 70
     0
  9
$PLINEGEN
 70
     0
  9
$PSLTSCALE
 70
     0
  9
$TREEDEPTH
 70
  3020
  9
$DWGCODEPAGE
  3
iso8859-1
  0
ENDSEC
  0
SECTION
  2
TABLES
  0
TABLE
  2
VPORT
 70
     2
  0
VPORT
  2
*ACTIVE
 70
     0
 10
0.0
 20
0.0
 11
1.0
 21
1.0
 12
292.922009
 22
37.322444
 13
0.0
 23
0.0
 14
1.0
 24
1.0
 15
10.0
 25
10.0
 16
0.0
 26
0.0
 36
1.0
 17
0.0
 27
0.0
 37
0.0
 40
14.85
 41
1.552352
 42
50.0
 43
0.0
 44
0.0
 50
0.0
 51
0.0
 71
     0
 72
   100
 73
     1
 74
     0
 75
     0
 76
     0
 77
     0
 78
     1
  0
ENDTAB
  0
TABLE
  2
LTYPE
 70
     1
  0
LTYPE
  2
CONTINUOUS
 70
    64
  3
Solid line
 72
    65
 73
     0
 40
0.0
  0
ENDTAB
  0
TABLE
  2
LAYER
 70
     3
  0
LAYER
  2
0
 70
    64
 62
     7
  6
CONTINUOUS
  0
LAYER
  2
MESURA
 70
     0
 62
     7
  6
CONTINUOUS
  0
LAYER
  2
DEFPOINTS
 70
    64
 62
     7
  6
CONTINUOUS
  0
ENDTAB
  0
TABLE
  2
STYLE
 70
     2
  0
STYLE
  2
STANDARD
 70
     0
 40
0.0
 41
1.0
 50
0.0
 71
     0
 42
0.1
  3
txt
  4

  0
STYLE
  2
ROMANC
 70
    64
 40
0.0
 41
1.0
 50
0.0
 71
     0
 42
0.1
  3
romanc
  4

  0
ENDTAB
  0
TABLE
  2
VIEW
 70
     0
  0
ENDTAB
  0
TABLE
  2
UCS
 70
     0
  0
ENDTAB
  0
TABLE
  2
APPID
 70
     1
  0
APPID
  2
ACAD
 70
    64
  0
ENDTAB
  0
TABLE
  2
DIMSTYLE
 70
     1
  0
DIMSTYLE
  2
SILVIA
 70
     0
  3

  4

  5

  6

  7

 40
1.5
 41
0.1
 42
0.01
 43
7.0
 44
0.01
 45
0.0
 46
0.0
 47
0.0
 48
0.0
140
0.05
141
0.1
142
0.0
143
25.4
144
1.0
145
0.0
146
70.0
147
0.09
 71
     0
 72
     0
 73
     0
 74
     0
 75
     0
 76
     0
 77
     1
 78
     0
170
     0
171
     2
172
     1
173
     0
174
     1
175
     0
176
     0
177
     0
178
     0
  0
ENDTAB
  0
ENDSEC
  0
SECTION
  2
BLOCKS
  0
BLOCK
  8
0
  2
*D0
 70
    65
 10
0.0
 20
0.0
 30
0.0
  3
*D
  0
LINE
  8
0
  6
BYBLOCK
 62
     0
 10
285.126575
 20
36.280466
 30
0.0
 11
285.126575
 21
36.280466
 31
0.0
  0
LINE
  8
0
  6
BYBLOCK
 62
     0
 10
287.626575
 20
36.280466
 30
0.0
 11
287.626575
 21
36.280466
 31
0.0
  0
LINE
  8
0
  6
BYBLOCK
 62
     0
 10
285.276575
 20
36.265466
 30
0.0
 11
287.476575
 21
36.265466
 31
0.0
  0
SOLID
  8
0
  6
BYBLOCK
 62
     0
 10
285.276575
 20
36.290466
 30
0.0
 11
285.276575
 21
36.240466
 31
0.0
 12
285.126575
 22
36.265466
 32
0.0
 13
285.126575
 23
36.265466
 33
0.0
  0
SOLID
  8
0
  6
BYBLOCK
 62
     0
 10
287.476575
 20
36.290466
 30
0.0
 11
287.476575
 21
36.240466
 31
0.0
 12
287.626575
 22
36.265466
 32
0.0
 13
287.626575
 23
36.265466
 33
0.0
  0
TEXT
  8
0
  6
BYBLOCK
 62
     0
 10
286.251575
 20
36.302966
 30
0.0
 40
0.075
  1
2.50
  7
ROMANC
 72
     1
 11
286.376575
 21
36.340466
 31
0.0
 73
     2
  0
POINT
  8
DEFPOINTS
  6
BYBLOCK
 62
     0
 10
285.126575
 20
36.265466
 30
0.0
  0
POINT
  8
DEFPOINTS
  6
BYBLOCK
 62
     0
 10
287.626575
 20
36.265466
 30
0.0
  0
POINT
  8
DEFPOINTS
  6
BYBLOCK
 62
     0
 10
287.626575
 20
36.265466
 30
0.0
  0
ENDBLK
  8
0
  0
BLOCK
  8
0
  2
*D1
 70
    65
 10
0.0
 20
0.0
 30
0.0
  3
*D
  0
LINE
  8
0
  6
BYBLOCK
 62
     0
 10
286.026575
 20
35.300466
 30
0.0
 11
286.026575
 21
34.535819
 31
0.0
  0
LINE
  8
0
  6
BYBLOCK
 62
     0
 10
286.726575
 20
35.300466
 30
0.0
 11
286.726575
 21
34.535819
 31
0.0
  0
LINE
  8
0
  6
BYBLOCK
 62
     0
 10
285.876575
 20
34.550819
 30
0.0
 11
285.726575
 21
34.550819
 31
0.0
  0
LINE
  8
0
  6
BYBLOCK
 62
     0
 10
286.876575
 20
34.550819
 30
0.0
 11
287.026575
 21
34.550819
 31
0.0
  0
SOLID
  8
0
  6
BYBLOCK
 62
     0
 10
285.876575
 20
34.575819
 30
0.0
 11
285.876575
 21
34.525819
 31
0.0
 12
286.026575
 22
34.550819
 32
0.0
 13
286.026575
 23
34.550819
 33
0.0
  0
SOLID
  8
0
  6
BYBLOCK
 62
     0
 10
286.876575
 20
34.575819
 30
0.0
 11
286.876575
 21
34.525819
 31
0.0
 12
286.726575
 22
34.550819
 32
0.0
 13
286.726575
 23
34.550819
 33
0.0
  0
LINE
  8
0
  6
BYBLOCK
 62
     0
 10
286.026575
 20
34.550819
 30
0.0
 11
286.726575
 21
34.550819
 31
0.0
  0
TEXT
  8
0
  6
BYBLOCK
 62
     0
 10
286.251575
 20
34.588319
 30
0.0
 40
0.075
  1
0.70
  7
ROMANC
 72
     1
 11
286.376575
 21
34.625819
 31
0.0
 73
     2
  0
POINT
  8
DEFPOINTS
  6
BYBLOCK
 62
     0
 10
286.026575
 20
35.315466
 30
0.0
  0
POINT
  8
DEFPOINTS
  6
BYBLOCK
 62
     0
 10
286.726575
 20
35.315466
 30
0.0
  0
POINT
  8
DEFPOINTS
  6
BYBLOCK
 62
     0
 10
286.726575
 20
34.550819
 30
0.0
  0
ENDBLK
  8
0
  0
BLOCK
  8
0
  2
*D2
 70
    65
 10
0.0
 20
0.0
 30
0.0
  3
*D
  0
LINE
  8
0
  6
BYBLOCK
 62
     0
 10
285.226575
 20
35.300466
 30
0.0
 11
285.226575
 21
34.248401
 31
0.0
  0
LINE
  8
0
  6
BYBLOCK
 62
     0
 10
287.526575
 20
35.300466
 30
0.0
 11
287.526575
 21
34.248401
 31
0.0
  0
LINE
  8
0
  6
BYBLOCK
 62
     0
 10
285.376575
 20
34.263401
 30
0.0
 11
287.376575
 21
34.263401
 31
0.0
  0
SOLID
  8
0
  6
BYBLOCK
 62
     0
 10
285.376575
 20
34.288401
 30
0.0
 11
285.376575
 21
34.238401
 31
0.0
 12
285.226575
 22
34.263401
 32
0.0
 13
285.226575
 23
34.263401
 33
0.0
  0
SOLID
  8
0
  6
BYBLOCK
 62
     0
 10
287.376575
 20
34.288401
 30
0.0
 11
287.376575
 21
34.238401
 31
0.0
 12
287.526575
 22
34.263401
 32
0.0
 13
287.526575
 23
34.263401
 33
0.0
  0
TEXT
  8
0
  6
BYBLOCK
 62
     0
 10
286.251575
 20
34.300901
 30
0.0
 40
0.075
  1
2.30
  7
ROMANC
 72
     1
 11
286.376575
 21
34.338401
 31
0.0
 73
     2
  0
POINT
  8
DEFPOINTS
  6
BYBLOCK
 62
     0
 10
285.226575
 20
35.315466
 30
0.0
  0
POINT
  8
DEFPOINTS
  6
BYBLOCK
 62
     0
 10
287.526575
 20
35.315466
 30
0.0
  0
POINT
  8
DEFPOINTS
  6
BYBLOCK
 62
     0
 10
287.526575
 20
34.263401
 30
0.0
  0
ENDBLK
  8
0
  0
BLOCK
  8
0
  2
*D3
 70
    65
 10
0.0
 20
0.0
 30
0.0
  3
*D
  0
LINE
  8
0
  6
BYBLOCK
 62
     0
 10
286.391575
 20
34.815466
 30
0.0
 11
287.971249
 21
34.815466
 31
0.0
  0
LINE
  8
0
  6
BYBLOCK
 62
     0
 10
286.741575
 20
35.315466
 30
0.0
 11
287.971249
 21
35.315466
 31
0.0
  0
LINE
  8
0
  6
BYBLOCK
 62
     0
 10
287.956249
 20
34.665466
 30
0.0
 11
287.956249
 21
34.515466
 31
0.0
  0
LINE
  8
0
  6
BYBLOCK
 62
     0
 10
287.956249
 20
35.465466
 30
0.0
 11
287.956249
 21
35.615466
 31
0.0
  0
SOLID
  8
0
  6
BYBLOCK
 62
     0
 10
287.931249
 20
34.665466
 30
0.0
 11
287.981249
 21
34.665466
 31
0.0
 12
287.956249
 22
34.815466
 32
0.0
 13
287.956249
 23
34.815466
 33
0.0
  0
SOLID
  8
0
  6
BYBLOCK
 62
     0
 10
287.931249
 20
35.465466
 30
0.0
 11
287.981249
 21
35.465466
 31
0.0
 12
287.956249
 22
35.315466
 32
0.0
 13
287.956249
 23
35.315466
 33
0.0
  0
LINE
  8
0
  6
BYBLOCK
 62
     0
 10
287.956249
 20
34.815466
 30
0.0
 11
287.956249
 21
35.315466
 31
0.0
  0
TEXT
  8
0
  6
BYBLOCK
 62
     0
 10
287.918749
 20
34.940466
 30
0.0
 40
0.075
  1
0.50
 50
90.0
  7
ROMANC
 72
     1
 11
287.881249
 21
35.065466
 31
0.0
 73
     2
  0
POINT
  8
DEFPOINTS
  6
BYBLOCK
 62
     0
 10
286.376575
 20
34.815466
 30
0.0
  0
POINT
  8
DEFPOINTS
  6
BYBLOCK
 62
     0
 10
286.726575
 20
35.315466
 30
0.0
  0
POINT
  8
DEFPOINTS
  6
BYBLOCK
 62
     0
 10
287.956249
 20
35.315466
 30
0.0
  0
ENDBLK
  8
0
  0
BLOCK
  8
0
  2
*D4
 70
    65
 10
0.0
 20
0.0
 30
0.0
  3
*D
  0
LINE
  8
0
  6
BYBLOCK
 62
     0
 10
287.541575
 20
35.315466
 30
0.0
 11
287.971249
 21
35.315466
 31
0.0
  0
LINE
  8
0
  6
BYBLOCK
 62
     0
 10
287.641575
 20
36.265466
 30
0.0
 11
287.971249
 21
36.265466
 31
0.0
  0
LINE
  8
0
  6
BYBLOCK
 62
     0
 10
287.956249
 20
35.465466
 30
0.0
 11
287.956249
 21
36.115466
 31
0.0
  0
SOLID
  8
0
  6
BYBLOCK
 62
     0
 10
287.931249
 20
35.465466
 30
0.0
 11
287.981249
 21
35.465466
 31
0.0
 12
287.956249
 22
35.315466
 32
0.0
 13
287.956249
 23
35.315466
 33
0.0
  0
SOLID
  8
0
  6
BYBLOCK
 62
     0
 10
287.931249
 20
36.115466
 30
0.0
 11
287.981249
 21
36.115466
 31
0.0
 12
287.956249
 22
36.265466
 32
0.0
 13
287.956249
 23
36.265466
 33
0.0
  0
TEXT
  8
0
  6
BYBLOCK
 62
     0
 10
287.918749
 20
35.665466
 30
0.0
 40
0.075
  1
0.95
 50
90.0
  7
ROMANC
 72
     1
 11
287.881249
 21
35.790466
 31
0.0
 73
     2
  0
POINT
  8
DEFPOINTS
  6
BYBLOCK
 62
     0
 10
287.526575
 20
35.315466
 30
0.0
  0
POINT
  8
DEFPOINTS
  6
BYBLOCK
 62
     0
 10
287.626575
 20
36.265466
 30
0.0
  0
POINT
  8
DEFPOINTS
  6
BYBLOCK
 62
     0
 10
287.956249
 20
36.265466
 30
0.0
  0
ENDBLK
  8
0
  0
BLOCK
  8
0
  2
*D5
 70
    65
 10
0.0
 20
0.0
 30
0.0
  3
*D
  0
LINE
  8
0
  6
BYBLOCK
 62
     0
 10
286.391575
 20
34.815466
 30
0.0
 11
288.340114
 21
34.815466
 31
0.0
  0
LINE
  8
0
  6
BYBLOCK
 62
     0
 10
286.391575
 20
37.515466
 30
0.0
 11
288.340114
 21
37.515466
 31
0.0
  0
LINE
  8
0
  6
BYBLOCK
 62
     0
 10
288.325114
 20
34.965466
 30
0.0
 11
288.325114
 21
37.365466
 31
0.0
  0
SOLID
  8
0
  6
BYBLOCK
 62
     0
 10
288.300114
 20
34.965466
 30
0.0
 11
288.350114
 21
34.965466
 31
0.0
 12
288.325114
 22
34.815466
 32
0.0
 13
288.325114
 23
34.815466
 33
0.0
  0
SOLID
  8
0
  6
BYBLOCK
 62
     0
 10
288.300114
 20
37.365466
 30
0.0
 11
288.350114
 21
37.365466
 31
0.0
 12
288.325114
 22
37.515466
 32
0.0
 13
288.325114
 23
37.515466
 33
0.0
  0
TEXT
  8
0
  6
BYBLOCK
 62
     0
 10
288.287614
 20
36.040466
 30
0.0
 40
0.075
  1
2.70
 50
90.0
  7
ROMANC
 72
     1
 11
288.250114
 21
36.165466
 31
0.0
 73
     2
  0
POINT
  8
DEFPOINTS
  6
BYBLOCK
 62
     0
 10
286.376575
 20
34.815466
 30
0.0
  0
POINT
  8
DEFPOINTS
  6
BYBLOCK
 62
     0
 10
286.376575
 20
37.515466
 30
0.0
  0
POINT
  8
DEFPOINTS
  6
BYBLOCK
 62
     0
 10
288.325114
 20
37.515466
 30
0.0
  0
ENDBLK
  8
0
  0
BLOCK
  8
0
  2
*D6
 70
    65
 10
0.0
 20
0.0
 30
0.0
  3
*D
  0
LINE
  8
0
  6
BYBLOCK
 62
     0
 10
285.176575
 20
36.280466
 30
0.0
 11
285.176575
 21
36.285043
 31
0.0
  0
LINE
  8
0
  6
BYBLOCK
 62
     0
 10
287.626575
 20
36.280466
 30
0.0
 11
287.626575
 21
36.285043
 31
0.0
  0
LINE
  8
0
  6
BYBLOCK
 62
     0
 10
285.326575
 20
36.270043
 30
0.0
 11
287.476575
 21
36.270043
 31
0.0
  0
SOLID
  8
0
  6
BYBLOCK
 62
     0
 10
285.326575
 20
36.295043
 30
0.0
 11
285.326575
 21
36.245043
 31
0.0
 12
285.176575
 22
36.270043
 32
0.0
 13
285.176575
 23
36.270043
 33
0.0
  0
SOLID
  8
0
  6
BYBLOCK
 62
     0
 10
287.476575
 20
36.295043
 30
0.0
 11
287.476575
 21
36.245043
 31
0.0
 12
287.626575
 22
36.270043
 32
0.0
 13
287.626575
 23
36.270043
 33
0.0
  0
TEXT
  8
0
  6
BYBLOCK
 62
     0
 10
286.276575
 20
36.307543
 30
0.0
 40
0.075
  1
2.45
  7
ROMANC
 72
     1
 11
286.401575
 21
36.345043
 31
0.0
 73
     2
  0
POINT
  8
DEFPOINTS
  6
BYBLOCK
 62
     0
 10
285.176575
 20
36.265466
 30
0.0
  0
POINT
  8
DEFPOINTS
  6
BYBLOCK
 62
     0
 10
287.626575
 20
36.265466
 30
0.0
  0
POINT
  8
DEFPOINTS
  6
BYBLOCK
 62
     0
 10
287.626575
 20
36.270043
 30
0.0
  0
ENDBLK
  8
0
  0
BLOCK
  8
0
  2
*D7
 70
    65
 10
0.0
 20
0.0
 30
0.0
  3
*D
  0
LINE
  8
0
  6
BYBLOCK
 62
     0
 10
285.176575
 20
35.250466
 30
0.0
 11
285.176575
 21
34.603114
 31
0.0
  0
LINE
  8
0
  6
BYBLOCK
 62
     0
 10
285.776575
 20
35.250466
 30
0.0
 11
285.776575
 21
34.603114
 31
0.0
  0
LINE
  8
0
  6
BYBLOCK
 62
     0
 10
285.026575
 20
34.618114
 30
0.0
 11
284.876575
 21
34.618114
 31
0.0
  0
LINE
  8
0
  6
BYBLOCK
 62
     0
 10
285.926575
 20
34.618114
 30
0.0
 11
286.076575
 21
34.618114
 31
0.0
  0
SOLID
  8
0
  6
BYBLOCK
 62
     0
 10
285.026575
 20
34.643114
 30
0.0
 11
285.026575
 21
34.593114
 31
0.0
 12
285.176575
 22
34.618114
 32
0.0
 13
285.176575
 23
34.618114
 33
0.0
  0
SOLID
  8
0
  6
BYBLOCK
 62
     0
 10
285.926575
 20
34.643114
 30
0.0
 11
285.926575
 21
34.593114
 31
0.0
 12
285.776575
 22
34.618114
 32
0.0
 13
285.776575
 23
34.618114
 33
0.0
  0
LINE
  8
0
  6
BYBLOCK
 62
     0
 10
285.176575
 20
34.618114
 30
0.0
 11
285.776575
 21
34.618114
 31
0.0
  0
TEXT
  8
0
  6
BYBLOCK
 62
     0
 10
285.351575
 20
34.655614
 30
0.0
 40
0.075
  1
0.60
  7
ROMANC
 72
     1
 11
285.476575
 21
34.693114
 31
0.0
 73
     2
  0
POINT
  8
DEFPOINTS
  6
BYBLOCK
 62
     0
 10
285.176575
 20
35.265466
 30
0.0
  0
POINT
  8
DEFPOINTS
  6
BYBLOCK
 62
     0
 10
285.776575
 20
35.265466
 30
0.0
  0
POINT
  8
DEFPOINTS
  6
BYBLOCK
 62
     0
 10
285.776575
 20
34.618114
 30
0.0
  0
ENDBLK
  8
0
  0
BLOCK
  8
0
  2
*D8
 70
    65
 10
0.0
 20
0.0
 30
0.0
  3
*D
  0
LINE
  8
0
  6
BYBLOCK
 62
     0
 10
285.176575
 20
35.250466
 30
0.0
 11
285.176575
 21
34.521364
 31
0.0
  0
LINE
  8
0
  6
BYBLOCK
 62
     0
 10
285.776575
 20
35.250466
 30
0.0
 11
285.776575
 21
34.521364
 31
0.0
  0
LINE
  8
0
  6
BYBLOCK
 62
     0
 10
285.026575
 20
34.536364
 30
0.0
 11
284.876575
 21
34.536364
 31
0.0
  0
LINE
  8
0
  6
BYBLOCK
 62
     0
 10
285.926575
 20
34.536364
 30
0.0
 11
286.076575
 21
34.536364
 31
0.0
  0
SOLID
  8
0
  6
BYBLOCK
 62
     0
 10
285.026575
 20
34.561364
 30
0.0
 11
285.026575
 21
34.511364
 31
0.0
 12
285.176575
 22
34.536364
 32
0.0
 13
285.176575
 23
34.536364
 33
0.0
  0
SOLID
  8
0
  6
BYBLOCK
 62
     0
 10
285.926575
 20
34.561364
 30
0.0
 11
285.926575
 21
34.511364
 31
0.0
 12
285.776575
 22
34.536364
 32
0.0
 13
285.776575
 23
34.536364
 33
0.0
  0
LINE
  8
0
  6
BYBLOCK
 62
     0
 10
285.176575
 20
34.536364
 30
0.0
 11
285.776575
 21
34.536364
 31
0.0
  0
TEXT
  8
0
  6
BYBLOCK
 62
     0
 10
285.351575
 20
34.573864
 30
0.0
 40
0.075
  1
0.60
  7
ROMANC
 72
     1
 11
285.476575
 21
34.611364
 31
0.0
 73
     2
  0
POINT
  8
DEFPOINTS
  6
BYBLOCK
 62
     0
 10
285.176575
 20
35.265466
 30
0.0
  0
POINT
  8
DEFPOINTS
  6
BYBLOCK
 62
     0
 10
285.776575
 20
35.265466
 30
0.0
  0
POINT
  8
DEFPOINTS
  6
BYBLOCK
 62
     0
 10
285.776575
 20
34.536364
 30
0.0
  0
ENDBLK
  8
0
  0
BLOCK
  8
0
  2
*D9
 70
    65
 10
0.0
 20
0.0
 30
0.0
  3
*D
  0
LINE
  8
0
  6
BYBLOCK
 62
     0
 10
285.776575
 20
35.250466
 30
0.0
 11
285.776575
 21
34.521364
 31
0.0
  0
LINE
  8
0
  6
BYBLOCK
 62
     0
 10
287.026575
 20
35.250466
 30
0.0
 11
287.026575
 21
34.521364
 31
0.0
  0
LINE
  8
0
  6
BYBLOCK
 62
     0
 10
285.926575
 20
34.536364
 30
0.0
 11
286.876575
 21
34.536364
 31
0.0
  0
SOLID
  8
0
  6
BYBLOCK
 62
     0
 10
285.926575
 20
34.561364
 30
0.0
 11
285.926575
 21
34.511364
 31
0.0
 12
285.776575
 22
34.536364
 32
0.0
 13
285.776575
 23
34.536364
 33
0.0
  0
SOLID
  8
0
  6
BYBLOCK
 62
     0
 10
286.876575
 20
34.561364
 30
0.0
 11
286.876575
 21
34.511364
 31
0.0
 12
287.026575
 22
34.536364
 32
0.0
 13
287.026575
 23
34.536364
 33
0.0
  0
TEXT
  8
0
  6
BYBLOCK
 62
     0
 10
286.271218
 20
34.573864
 30
0.0
 40
0.075
  1
1.25
  7
ROMANC
 72
     1
 11
286.401575
 21
34.611364
 31
0.0
 73
     2
  0
POINT
  8
DEFPOINTS
  6
BYBLOCK
 62
     0
 10
285.776575
 20
35.265466
 30
0.0
  0
POINT
  8
DEFPOINTS
  6
BYBLOCK
 62
     0
 10
287.026575
 20
35.265466
 30
0.0
  0
POINT
  8
DEFPOINTS
  6
BYBLOCK
 62
     0
 10
287.026575
 20
34.536364
 30
0.0
  0
ENDBLK
  8
0
  0
BLOCK
  8
0
  2
*D10
 70
    65
 10
0.0
 20
0.0
 30
0.0
  3
*D
  0
LINE
  8
0
  6
BYBLOCK
 62
     0
 10
287.026575
 20
35.250466
 30
0.0
 11
287.026575
 21
34.521364
 31
0.0
  0
LINE
  8
0
  6
BYBLOCK
 62
     0
 10
287.626575
 20
35.250466
 30
0.0
 11
287.626575
 21
34.521364
 31
0.0
  0
LINE
  8
0
  6
BYBLOCK
 62
     0
 10
286.876575
 20
34.536364
 30
0.0
 11
286.726575
 21
34.536364
 31
0.0
  0
LINE
  8
0
  6
BYBLOCK
 62
     0
 10
287.776575
 20
34.536364
 30
0.0
 11
287.926575
 21
34.536364
 31
0.0
  0
SOLID
  8
0
  6
BYBLOCK
 62
     0
 10
286.876575
 20
34.561364
 30
0.0
 11
286.876575
 21
34.511364
 31
0.0
 12
287.026575
 22
34.536364
 32
0.0
 13
287.026575
 23
34.536364
 33
0.0
  0
SOLID
  8
0
  6
BYBLOCK
 62
     0
 10
287.776575
 20
34.561364
 30
0.0
 11
287.776575
 21
34.511364
 31
0.0
 12
287.626575
 22
34.536364
 32
0.0
 13
287.626575
 23
34.536364
 33
0.0
  0
LINE
  8
0
  6
BYBLOCK
 62
     0
 10
287.026575
 20
34.536364
 30
0.0
 11
287.626575
 21
34.536364
 31
0.0
  0
TEXT
  8
0
  6
BYBLOCK
 62
     0
 10
287.201575
 20
34.573864
 30
0.0
 40
0.075
  1
0.60
  7
ROMANC
 72
     1
 11
287.326575
 21
34.611364
 31
0.0
 73
     2
  0
POINT
  8
DEFPOINTS
  6
BYBLOCK
 62
     0
 10
287.026575
 20
35.265466
 30
0.0
  0
POINT
  8
DEFPOINTS
  6
BYBLOCK
 62
     0
 10
287.626575
 20
35.265466
 30
0.0
  0
POINT
  8
DEFPOINTS
  6
BYBLOCK
 62
     0
 10
287.626575
 20
34.536364
 30
0.0
  0
ENDBLK
  8
0
  0
BLOCK
  8
0
  2
*D11
 70
    65
 10
0.0
 20
0.0
 30
0.0
  3
*D
  0
LINE
  8
0
  6
BYBLOCK
 62
     0
 10
286.416575
 20
34.915466
 30
0.0
 11
288.096934
 21
34.915466
 31
0.0
  0
LINE
  8
0
  6
BYBLOCK
 62
     0
 10
287.641575
 20
35.265466
 30
0.0
 11
288.096934
 21
35.265466
 31
0.0
  0
LINE
  8
0
  6
BYBLOCK
 62
     0
 10
288.081934
 20
34.765466
 30
0.0
 11
288.081934
 21
34.615466
 31
0.0
  0
LINE
  8
0
  6
BYBLOCK
 62
     0
 10
288.081934
 20
35.415466
 30
0.0
 11
288.081934
 21
35.565466
 31
0.0
  0
SOLID
  8
0
  6
BYBLOCK
 62
     0
 10
288.056934
 20
34.765466
 30
0.0
 11
288.106934
 21
34.765466
 31
0.0
 12
288.081934
 22
34.915466
 32
0.0
 13
288.081934
 23
34.915466
 33
0.0
  0
SOLID
  8
0
  6
BYBLOCK
 62
     0
 10
288.056934
 20
35.415466
 30
0.0
 11
288.106934
 21
35.415466
 31
0.0
 12
288.081934
 22
35.265466
 32
0.0
 13
288.081934
 23
35.265466
 33
0.0
  0
LINE
  8
0
  6
BYBLOCK
 62
     0
 10
288.081934
 20
34.915466
 30
0.0
 11
288.081934
 21
35.265466
 31
0.0
  0
TEXT
  8
0
  6
BYBLOCK
 62
     0
 10
288.044434
 20
34.965466
 30
0.0
 40
0.075
  1
0.35
 50
90.0
  7
ROMANC
 72
     1
 11
288.006934
 21
35.090466
 31
0.0
 73
     2
  0
POINT
  8
DEFPOINTS
  6
BYBLOCK
 62
     0
 10
286.401575
 20
34.915466
 30
0.0
  0
POINT
  8
DEFPOINTS
  6
BYBLOCK
 62
     0
 10
287.626575
 20
35.265466
 30
0.0
  0
POINT
  8
DEFPOINTS
  6
BYBLOCK
 62
     0
 10
288.081934
 20
35.265466
 30
0.0
  0
ENDBLK
  8
0
  0
BLOCK
  8
0
  2
*D12
 70
    65
 10
0.0
 20
0.0
 30
0.0
  3
*D
  0
LINE
  8
0
  6
BYBLOCK
 62
     0
 10
286.416575
 20
34.915466
 30
0.0
 11
287.981296
 21
34.915466
 31
0.0
  0
LINE
  8
0
  6
BYBLOCK
 62
     0
 10
287.041575
 20
34.965466
 30
0.0
 11
287.981296
 21
34.965466
 31
0.0
  0
LINE
  8
0
  6
BYBLOCK
 62
     0
 10
287.966296
 20
34.765466
 30
0.0
 11
287.966296
 21
34.615466
 31
0.0
  0
LINE
  8
0
  6
BYBLOCK
 62
     0
 10
287.966296
 20
35.115466
 30
0.0
 11
287.966296
 21
35.265466
 31
0.0
  0
SOLID
  8
0
  6
BYBLOCK
 62
     0
 10
287.941296
 20
34.765466
 30
0.0
 11
287.991296
 21
34.765466
 31
0.0
 12
287.966296
 22
34.915466
 32
0.0
 13
287.966296
 23
34.915466
 33
0.0
  0
SOLID
  8
0
  6
BYBLOCK
 62
     0
 10
287.941296
 20
35.115466
 30
0.0
 11
287.991296
 21
35.115466
 31
0.0
 12
287.966296
 22
34.965466
 32
0.0
 13
287.966296
 23
34.965466
 33
0.0
  0
LINE
  8
0
  6
BYBLOCK
 62
     0
 10
287.966296
 20
34.915466
 30
0.0
 11
287.966296
 21
34.965466
 31
0.0
  0
TEXT
  8
0
  6
BYBLOCK
 62
     0
 10
287.928796
 20
34.815466
 30
0.0
 40
0.075
  1
0.05
 50
90.0
  7
ROMANC
 72
     1
 11
287.891296
 21
34.940466
 31
0.0
 73
     2
  0
POINT
  8
DEFPOINTS
  6
BYBLOCK
 62
     0
 10
286.401575
 20
34.915466
 30
0.0
  0
POINT
  8
DEFPOINTS
  6
BYBLOCK
 62
     0
 10
287.026575
 20
34.965466
 30
0.0
  0
POINT
  8
DEFPOINTS
  6
BYBLOCK
 62
     0
 10
287.966296
 20
34.965466
 30
0.0
  0
ENDBLK
  8
0
  0
BLOCK
  8
0
  2
*D13
 70
    65
 10
0.0
 20
0.0
 30
0.0
  3
*D
  0
LINE
  8
0
  6
BYBLOCK
 62
     0
 10
286.416575
 20
34.915466
 30
0.0
 11
288.098391
 21
34.915466
 31
0.0
  0
LINE
  8
0
  6
BYBLOCK
 62
     0
 10
287.041575
 20
34.965466
 30
0.0
 11
288.098391
 21
34.965466
 31
0.0
  0
LINE
  8
0
  6
BYBLOCK
 62
     0
 10
288.083391
 20
34.765466
 30
0.0
 11
288.083391
 21
34.615466
 31
0.0
  0
LINE
  8
0
  6
BYBLOCK
 62
     0
 10
288.083391
 20
35.115466
 30
0.0
 11
288.083391
 21
35.265466
 31
0.0
  0
SOLID
  8
0
  6
BYBLOCK
 62
     0
 10
288.058391
 20
34.765466
 30
0.0
 11
288.108391
 21
34.765466
 31
0.0
 12
288.083391
 22
34.915466
 32
0.0
 13
288.083391
 23
34.915466
 33
0.0
  0
SOLID
  8
0
  6
BYBLOCK
 62
     0
 10
288.058391
 20
35.115466
 30
0.0
 11
288.108391
 21
35.115466
 31
0.0
 12
288.083391
 22
34.965466
 32
0.0
 13
288.083391
 23
34.965466
 33
0.0
  0
LINE
  8
0
  6
BYBLOCK
 62
     0
 10
288.083391
 20
34.915466
 30
0.0
 11
288.083391
 21
34.965466
 31
0.0
  0
TEXT
  8
0
  6
BYBLOCK
 62
     0
 10
288.045891
 20
34.815466
 30
0.0
 40
0.075
  1
0.05
 50
90.0
  7
ROMANC
 72
     1
 11
288.008391
 21
34.940466
 31
0.0
 73
     2
  0
POINT
  8
DEFPOINTS
  6
BYBLOCK
 62
     0
 10
286.401575
 20
34.915466
 30
0.0
  0
POINT
  8
DEFPOINTS
  6
BYBLOCK
 62
     0
 10
287.026575
 20
34.965466
 30
0.0
  0
POINT
  8
DEFPOINTS
  6
BYBLOCK
 62
     0
 10
288.083391
 20
34.965466
 30
0.0
  0
ENDBLK
  8
0
  0
BLOCK
  8
0
  2
*D14
 70
    65
 10
0.0
 20
0.0
 30
0.0
  3
*D
  0
LINE
  8
0
  6
BYBLOCK
 62
     0
 10
286.416575
 20
34.915466
 30
0.0
 11
288.098391
 21
34.915466
 31
0.0
  0
LINE
  8
0
  6
BYBLOCK
 62
     0
 10
287.041575
 20
34.965466
 30
0.0
 11
288.098391
 21
34.965466
 31
0.0
  0
LINE
  8
0
  6
BYBLOCK
 62
     0
 10
288.083391
 20
34.765466
 30
0.0
 11
288.083391
 21
34.615466
 31
0.0
  0
LINE
  8
0
  6
BYBLOCK
 62
     0
 10
288.083391
 20
35.115466
 30
0.0
 11
288.083391
 21
35.265466
 31
0.0
  0
SOLID
  8
0
  6
BYBLOCK
 62
     0
 10
288.058391
 20
34.765466
 30
0.0
 11
288.108391
 21
34.765466
 31
0.0
 12
288.083391
 22
34.915466
 32
0.0
 13
288.083391
 23
34.915466
 33
0.0
  0
SOLID
  8
0
  6
BYBLOCK
 62
     0
 10
288.058391
 20
35.115466
 30
0.0
 11
288.108391
 21
35.115466
 31
0.0
 12
288.083391
 22
34.965466
 32
0.0
 13
288.083391
 23
34.965466
 33
0.0
  0
LINE
  8
0
  6
BYBLOCK
 62
     0
 10
288.083391
 20
34.915466
 30
0.0
 11
288.083391
 21
34.965466
 31
0.0
  0
TEXT
  8
0
  6
BYBLOCK
 62
     0
 10
288.045891
 20
34.627982
 30
0.0
 40
0.075
  1
0.05
 50
90.0
  7
ROMANC
 72
     1
 11
288.008391
 21
34.752982
 31
0.0
 73
     2
  0
POINT
  8
DEFPOINTS
  6
BYBLOCK
 62
     0
 10
286.401575
 20
34.915466
 30
0.0
  0
POINT
  8
DEFPOINTS
  6
BYBLOCK
 62
     0
 10
287.026575
 20
34.965466
 30
0.0
  0
POINT
  8
DEFPOINTS
  6
BYBLOCK
 62
     0
 10
288.083391
 20
34.965466
 30
0.0
  0
ENDBLK
  8
0
  0
BLOCK
  8
0
  2
*D15
 70
    65
 10
0.0
 20
0.0
 30
0.0
  3
*D
  0
LINE
  8
0
  6
BYBLOCK
 62
     0
 10
286.416575
 20
34.915466
 30
0.0
 11
288.098391
 21
34.915466
 31
0.0
  0
LINE
  8
0
  6
BYBLOCK
 62
     0
 10
287.041575
 20
34.965466
 30
0.0
 11
288.098391
 21
34.965466
 31
0.0
  0
LINE
  8
0
  6
BYBLOCK
 62
     0
 10
288.083391
 20
34.765466
 30
0.0
 11
288.083391
 21
34.615466
 31
0.0
  0
LINE
  8
0
  6
BYBLOCK
 62
     0
 10
288.083391
 20
35.115466
 30
0.0
 11
288.083391
 21
35.265466
 31
0.0
  0
SOLID
  8
0
  6
BYBLOCK
 62
     0
 10
288.058391
 20
34.765466
 30
0.0
 11
288.108391
 21
34.765466
 31
0.0
 12
288.083391
 22
34.915466
 32
0.0
 13
288.083391
 23
34.915466
 33
0.0
  0
SOLID
  8
0
  6
BYBLOCK
 62
     0
 10
288.058391
 20
35.115466
 30
0.0
 11
288.108391
 21
35.115466
 31
0.0
 12
288.083391
 22
34.965466
 32
0.0
 13
288.083391
 23
34.965466
 33
0.0
  0
LINE
  8
0
  6
BYBLOCK
 62
     0
 10
288.083391
 20
34.915466
 30
0.0
 11
288.083391
 21
34.965466
 31
0.0
  0
TEXT
  8
0
  6
BYBLOCK
 62
     0
 10
288.045891
 20
34.647034
 30
0.0
 40
0.075
  1
0.05
 50
90.0
  7
ROMANC
 72
     1
 11
288.008391
 21
34.772034
 31
0.0
 73
     2
  0
POINT
  8
DEFPOINTS
  6
BYBLOCK
 62
     0
 10
286.401575
 20
34.915466
 30
0.0
  0
POINT
  8
DEFPOINTS
  6
BYBLOCK
 62
     0
 10
287.026575
 20
34.965466
 30
0.0
  0
POINT
  8
DEFPOINTS
  6
BYBLOCK
 62
     0
 10
288.083391
 20
34.965466
 30
0.0
  0
ENDBLK
  8
0
  0
BLOCK
  8
0
  2
*D16
 70
    65
 10
0.0
 20
0.0
 30
0.0
  3
*D
  0
LINE
  8
0
  6
BYBLOCK
 62
     0
 10
287.041575
 20
35.265466
 30
0.0
 11
288.098391
 21
35.265466
 31
0.0
  0
LINE
  8
0
  6
BYBLOCK
 62
     0
 10
287.041575
 20
34.965466
 30
0.0
 11
288.098391
 21
34.965466
 31
0.0
  0
LINE
  8
0
  6
BYBLOCK
 62
     0
 10
288.083391
 20
35.415466
 30
0.0
 11
288.083391
 21
35.565466
 31
0.0
  0
LINE
  8
0
  6
BYBLOCK
 62
     0
 10
288.083391
 20
34.815466
 30
0.0
 11
288.083391
 21
34.665466
 31
0.0
  0
SOLID
  8
0
  6
BYBLOCK
 62
     0
 10
288.058391
 20
35.415466
 30
0.0
 11
288.108391
 21
35.415466
 31
0.0
 12
288.083391
 22
35.265466
 32
0.0
 13
288.083391
 23
35.265466
 33
0.0
  0
SOLID
  8
0
  6
BYBLOCK
 62
     0
 10
288.058391
 20
34.815466
 30
0.0
 11
288.108391
 21
34.815466
 31
0.0
 12
288.083391
 22
34.965466
 32
0.0
 13
288.083391
 23
34.965466
 33
0.0
  0
LINE
  8
0
  6
BYBLOCK
 62
     0
 10
288.083391
 20
35.265466
 30
0.0
 11
288.083391
 21
34.965466
 31
0.0
  0
TEXT
  8
0
  6
BYBLOCK
 62
     0
 10
288.045891
 20
34.990466
 30
0.0
 40
0.075
  1
0.30
 50
90.0
  7
ROMANC
 72
     1
 11
288.008391
 21
35.115466
 31
0.0
 73
     2
  0
POINT
  8
DEFPOINTS
  6
BYBLOCK
 62
     0
 10
287.026575
 20
35.265466
 30
0.0
  0
POINT
  8
DEFPOINTS
  6
BYBLOCK
 62
     0
 10
287.026575
 20
34.965466
 30
0.0
  0
POINT
  8
DEFPOINTS
  6
BYBLOCK
 62
     0
 10
288.083391
 20
34.965466
 30
0.0
  0
ENDBLK
  8
0
  0
BLOCK
  8
0
  2
*D17
 70
    65
 10
0.0
 20
0.0
 30
0.0
  3
*D
  0
LINE
  8
0
  6
BYBLOCK
 62
     0
 10
286.416575
 20
34.915466
 30
0.0
 11
287.978404
 21
34.915466
 31
0.0
  0
LINE
  8
0
  6
BYBLOCK
 62
     0
 10
287.041575
 20
34.965466
 30
0.0
 11
287.978404
 21
34.965466
 31
0.0
  0
LINE
  8
0
  6
BYBLOCK
 62
     0
 10
287.963404
 20
34.765466
 30
0.0
 11
287.963404
 21
34.615466
 31
0.0
  0
LINE
  8
0
  6
BYBLOCK
 62
     0
 10
287.963404
 20
35.115466
 30
0.0
 11
287.963404
 21
35.265466
 31
0.0
  0
SOLID
  8
0
  6
BYBLOCK
 62
     0
 10
287.938404
 20
34.765466
 30
0.0
 11
287.988404
 21
34.765466
 31
0.0
 12
287.963404
 22
34.915466
 32
0.0
 13
287.963404
 23
34.915466
 33
0.0
  0
SOLID
  8
0
  6
BYBLOCK
 62
     0
 10
287.938404
 20
35.115466
 30
0.0
 11
287.988404
 21
35.115466
 31
0.0
 12
287.963404
 22
34.965466
 32
0.0
 13
287.963404
 23
34.965466
 33
0.0
  0
LINE
  8
0
  6
BYBLOCK
 62
     0
 10
287.963404
 20
34.915466
 30
0.0
 11
287.963404
 21
34.965466
 31
0.0
  0
TEXT
  8
0
  6
BYBLOCK
 62
     0
 10
287.925904
 20
34.647034
 30
0.0
 40
0.075
  1
0.05
 50
90.0
  7
ROMANC
 72
     1
 11
287.888404
 21
34.772034
 31
0.0
 73
     2
  0
POINT
  8
DEFPOINTS
  6
BYBLOCK
 62
     0
 10
286.401575
 20
34.915466
 30
0.0
  0
POINT
  8
DEFPOINTS
  6
BYBLOCK
 62
     0
 10
287.026575
 20
34.965466
 30
0.0
  0
POINT
  8
DEFPOINTS
  6
BYBLOCK
 62
     0
 10
287.963404
 20
34.965466
 30
0.0
  0
ENDBLK
  8
0
  0
BLOCK
  8
0
  2
*D18
 70
    65
 10
0.0
 20
0.0
 30
0.0
  3
*D
  0
LINE
  8
0
  6
BYBLOCK
 62
     0
 10
286.416575
 20
34.915466
 30
0.0
 11
288.326735
 21
34.915466
 31
0.0
  0
LINE
  8
0
  6
BYBLOCK
 62
     0
 10
287.041575
 20
35.265466
 30
0.0
 11
288.326735
 21
35.265466
 31
0.0
  0
LINE
  8
0
  6
BYBLOCK
 62
     0
 10
288.311735
 20
34.765466
 30
0.0
 11
288.311735
 21
34.615466
 31
0.0
  0
LINE
  8
0
  6
BYBLOCK
 62
     0
 10
288.311735
 20
35.415466
 30
0.0
 11
288.311735
 21
35.565466
 31
0.0
  0
SOLID
  8
0
  6
BYBLOCK
 62
     0
 10
288.286735
 20
34.765466
 30
0.0
 11
288.336735
 21
34.765466
 31
0.0
 12
288.311735
 22
34.915466
 32
0.0
 13
288.311735
 23
34.915466
 33
0.0
  0
SOLID
  8
0
  6
BYBLOCK
 62
     0
 10
288.286735
 20
35.415466
 30
0.0
 11
288.336735
 21
35.415466
 31
0.0
 12
288.311735
 22
35.265466
 32
0.0
 13
288.311735
 23
35.265466
 33
0.0
  0
LINE
  8
0
  6
BYBLOCK
 62
     0
 10
288.311735
 20
34.915466
 30
0.0
 11
288.311735
 21
35.265466
 31
0.0
  0
TEXT
  8
0
  6
BYBLOCK
 62
     0
 10
288.274235
 20
34.965466
 30
0.0
 40
0.075
  1
0.35
 50
90.0
  7
ROMANC
 72
     1
 11
288.236735
 21
35.090466
 31
0.0
 73
     2
  0
POINT
  8
DEFPOINTS
  6
BYBLOCK
 62
     0
 10
286.401575
 20
34.915466
 30
0.0
  0
POINT
  8
DEFPOINTS
  6
BYBLOCK
 62
     0
 10
287.026575
 20
35.265466
 30
0.0
  0
POINT
  8
DEFPOINTS
  6
BYBLOCK
 62
     0
 10
288.311735
 20
35.265466
 30
0.0
  0
ENDBLK
  8
0
  0
BLOCK
  8
0
  2
*D19
 70
    65
 10
0.0
 20
0.0
 30
0.0
  3
*D
  0
LINE
  8
0
  6
BYBLOCK
 62
     0
 10
287.041575
 20
35.265466
 30
0.0
 11
298.826735
 21
35.265466
 31
0.0
  0
LINE
  8
0
  6
BYBLOCK
 62
     0
 10
287.491575
 20
36.270043
 30
0.0
 11
298.826735
 21
36.270043
 31
0.0
  0
LINE
  8
0
  6
BYBLOCK
 62
     0
 10
298.811735
 20
35.415466
 30
0.0
 11
298.811735
 21
36.120043
 31
0.0
  0
SOLID
  8
0
  6
BYBLOCK
 62
     0
 10
298.786735
 20
35.415466
 30
0.0
 11
298.836735
 21
35.415466
 31
0.0
 12
298.811735
 22
35.265466
 32
0.0
 13
298.811735
 23
35.265466
 33
0.0
  0
SOLID
  8
0
  6
BYBLOCK
 62
     0
 10
298.786735
 20
36.120043
 30
0.0
 11
298.836735
 21
36.120043
 31
0.0
 12
298.811735
 22
36.270043
 32
0.0
 13
298.811735
 23
36.270043
 33
0.0
  0
TEXT
  8
0
  6
BYBLOCK
 62
     0
 10
298.774235
 20
35.637398
 30
0.0
 40
0.075
  1
1.00
 50
90.0
  7
ROMANC
 72
     1
 11
298.736735
 21
35.767755
 31
0.0
 73
     2
  0
POINT
  8
DEFPOINTS
  6
BYBLOCK
 62
     0
 10
287.026575
 20
35.265466
 30
0.0
  0
POINT
  8
DEFPOINTS
  6
BYBLOCK
 62
     0
 10
287.476575
 20
36.270043
 30
0.0
  0
POINT
  8
DEFPOINTS
  6
BYBLOCK
 62
     0
 10
298.811735
 20
36.270043
 30
0.0
  0
ENDBLK
  8
0
  0
BLOCK
  8
0
  2
*D20
 70
    65
 10
0.0
 20
0.0
 30
0.0
  3
*D
  0
LINE
  8
0
  6
BYBLOCK
 62
     0
 10
288.311735
 20
35.265466
 30
0.0
 11
288.296735
 21
35.265466
 31
0.0
  0
LINE
  8
0
  6
BYBLOCK
 62
     0
 10
287.491575
 20
36.270043
 30
0.0
 11
288.326735
 21
36.270043
 31
0.0
  0
LINE
  8
0
  6
BYBLOCK
 62
     0
 10
288.311735
 20
35.415466
 30
0.0
 11
288.311735
 21
36.120043
 31
0.0
  0
SOLID
  8
0
  6
BYBLOCK
 62
     0
 10
288.286735
 20
35.415466
 30
0.0
 11
288.336735
 21
35.415466
 31
0.0
 12
288.311735
 22
35.265466
 32
0.0
 13
288.311735
 23
35.265466
 33
0.0
  0
SOLID
  8
0
  6
BYBLOCK
 62
     0
 10
288.286735
 20
36.120043
 30
0.0
 11
288.336735
 21
36.120043
 31
0.0
 12
288.311735
 22
36.270043
 32
0.0
 13
288.311735
 23
36.270043
 33
0.0
  0
TEXT
  8
0
  6
BYBLOCK
 62
     0
 10
288.274235
 20
35.637398
 30
0.0
 40
0.075
  1
1.00
 50
90.0
  7
ROMANC
 72
     1
 11
288.236735
 21
35.767755
 31
0.0
 73
     2
  0
POINT
  8
DEFPOINTS
  6
BYBLOCK
 62
     0
 10
288.326735
 20
35.265466
 30
0.0
  0
POINT
  8
DEFPOINTS
  6
BYBLOCK
 62
     0
 10
287.476575
 20
36.270043
 30
0.0
  0
POINT
  8
DEFPOINTS
  6
BYBLOCK
 62
     0
 10
288.311735
 20
36.270043
 30
0.0
  0
ENDBLK
  8
0
  0
BLOCK
  8
0
  2
*D21
 70
    65
 10
0.0
 20
0.0
 30
0.0
  3
*D
  0
LINE
  8
0
  6
BYBLOCK
 62
     0
 10
286.416575
 20
34.915466
 30
0.0
 11
288.725093
 21
34.915466
 31
0.0
  0
LINE
  8
0
  6
BYBLOCK
 62
     0
 10
286.65797
 20
37.399021
 30
0.0
 11
288.725093
 21
37.399021
 31
0.0
  0
LINE
  8
0
  6
BYBLOCK
 62
     0
 10
288.710093
 20
35.065466
 30
0.0
 11
288.710093
 21
37.249021
 31
0.0
  0
SOLID
  8
0
  6
BYBLOCK
 62
     0
 10
288.685093
 20
35.065466
 30
0.0
 11
288.735093
 21
35.065466
 31
0.0
 12
288.710093
 22
34.915466
 32
0.0
 13
288.710093
 23
34.915466
 33
0.0
  0
SOLID
  8
0
  6
BYBLOCK
 62
     0
 10
288.685093
 20
37.249021
 30
0.0
 11
288.735093
 21
37.249021
 31
0.0
 12
288.710093
 22
37.399021
 32
0.0
 13
288.710093
 23
37.399021
 33
0.0
  0
TEXT
  8
0
  6
BYBLOCK
 62
     0
 10
288.672593
 20
36.032243
 30
0.0
 40
0.075
  1
2.48
 50
90.0
  7
ROMANC
 72
     1
 11
288.635093
 21
36.157243
 31
0.0
 73
     2
  0
POINT
  8
DEFPOINTS
  6
BYBLOCK
 62
     0
 10
286.401575
 20
34.915466
 30
0.0
  0
POINT
  8
DEFPOINTS
  6
BYBLOCK
 62
     0
 10
286.64297
 20
37.399021
 30
0.0
  0
POINT
  8
DEFPOINTS
  6
BYBLOCK
 62
     0
 10
288.710093
 20
37.399021
 30
0.0
  0
ENDBLK
  8
0
  0
BLOCK
  8
0
  2
*D22
 70
    65
 10
0.0
 20
0.0
 30
0.0
  3
*D
  0
LINE
  8
0
  6
BYBLOCK
 62
     0
 10
286.416575
 20
34.915466
 30
0.0
 11
288.725093
 21
34.915466
 31
0.0
  0
LINE
  8
0
  6
BYBLOCK
 62
     0
 10
286.416575
 20
37.415466
 30
0.0
 11
288.725093
 21
37.415466
 31
0.0
  0
LINE
  8
0
  6
BYBLOCK
 62
     0
 10
288.710093
 20
35.065466
 30
0.0
 11
288.710093
 21
37.265466
 31
0.0
  0
SOLID
  8
0
  6
BYBLOCK
 62
     0
 10
288.685093
 20
35.065466
 30
0.0
 11
288.735093
 21
35.065466
 31
0.0
 12
288.710093
 22
34.915466
 32
0.0
 13
288.710093
 23
34.915466
 33
0.0
  0
SOLID
  8
0
  6
BYBLOCK
 62
     0
 10
288.685093
 20
37.265466
 30
0.0
 11
288.735093
 21
37.265466
 31
0.0
 12
288.710093
 22
37.415466
 32
0.0
 13
288.710093
 23
37.415466
 33
0.0
  0
TEXT
  8
0
  6
BYBLOCK
 62
     0
 10
288.672593
 20
36.040466
 30
0.0
 40
0.075
  1
2.50
 50
90.0
  7
ROMANC
 72
     1
 11
288.635093
 21
36.165466
 31
0.0
 73
     2
  0
POINT
  8
DEFPOINTS
  6
BYBLOCK
 62
     0
 10
286.401575
 20
34.915466
 30
0.0
  0
POINT
  8
DEFPOINTS
  6
BYBLOCK
 62
     0
 10
286.401575
 20
37.415466
 30
0.0
  0
POINT
  8
DEFPOINTS
  6
BYBLOCK
 62
     0
 10
288.710093
 20
37.415466
 30
0.0
  0
ENDBLK
  8
0
  0
BLOCK
  8
0
  2
*D23
 70
    65
 10
0.0
 20
0.0
 30
0.0
  3
*D
  0
LINE
  8
0
  6
BYBLOCK
 62
     0
 10
286.416575
 20
34.915466
 30
0.0
 11
288.6579
 21
34.915466
 31
0.0
  0
LINE
  8
0
  6
BYBLOCK
 62
     0
 10
286.416575
 20
37.415466
 30
0.0
 11
288.6579
 21
37.415466
 31
0.0
  0
LINE
  8
0
  6
BYBLOCK
 62
     0
 10
288.6429
 20
35.065466
 30
0.0
 11
288.6429
 21
37.265466
 31
0.0
  0
SOLID
  8
0
  6
BYBLOCK
 62
     0
 10
288.6179
 20
35.065466
 30
0.0
 11
288.6679
 21
35.065466
 31
0.0
 12
288.6429
 22
34.915466
 32
0.0
 13
288.6429
 23
34.915466
 33
0.0
  0
SOLID
  8
0
  6
BYBLOCK
 62
     0
 10
288.6179
 20
37.265466
 30
0.0
 11
288.6679
 21
37.265466
 31
0.0
 12
288.6429
 22
37.415466
 32
0.0
 13
288.6429
 23
37.415466
 33
0.0
  0
TEXT
  8
0
  6
BYBLOCK
 62
     0
 10
288.6054
 20
36.040466
 30
0.0
 40
0.075
  1
2.50
 50
90.0
  7
ROMANC
 72
     1
 11
288.5679
 21
36.165466
 31
0.0
 73
     2
  0
POINT
  8
DEFPOINTS
  6
BYBLOCK
 62
     0
 10
286.401575
 20
34.915466
 30
0.0
  0
POINT
  8
DEFPOINTS
  6
BYBLOCK
 62
     0
 10
286.401575
 20
37.415466
 30
0.0
  0
POINT
  8
DEFPOINTS
  6
BYBLOCK
 62
     0
 10
288.6429
 20
37.415466
 30
0.0
  0
ENDBLK
  8
0
  0
BLOCK
  8
0
  2
*D24
 70
    65
 10
0.0
 20
0.0
 30
0.0
  3
*D
  0
LINE
  8
0
  6
BYBLOCK
 62
     0
 10
288.244542
 20
35.265466
 30
0.0
 11
288.229542
 21
35.265466
 31
0.0
  0
LINE
  8
0
  6
BYBLOCK
 62
     0
 10
287.491575
 20
36.270043
 30
0.0
 11
288.259542
 21
36.270043
 31
0.0
  0
LINE
  8
0
  6
BYBLOCK
 62
     0
 10
288.244542
 20
35.415466
 30
0.0
 11
288.244542
 21
36.120043
 31
0.0
  0
SOLID
  8
0
  6
BYBLOCK
 62
     0
 10
288.219542
 20
35.415466
 30
0.0
 11
288.269542
 21
35.415466
 31
0.0
 12
288.244542
 22
35.265466
 32
0.0
 13
288.244542
 23
35.265466
 33
0.0
  0
SOLID
  8
0
  6
BYBLOCK
 62
     0
 10
288.219542
 20
36.120043
 30
0.0
 11
288.269542
 21
36.120043
 31
0.0
 12
288.244542
 22
36.270043
 32
0.0
 13
288.244542
 23
36.270043
 33
0.0
  0
TEXT
  8
0
  6
BYBLOCK
 62
     0
 10
288.207042
 20
35.637398
 30
0.0
 40
0.075
  1
1.00
 50
90.0
  7
ROMANC
 72
     1
 11
288.169542
 21
35.767755
 31
0.0
 73
     2
  0
POINT
  8
DEFPOINTS
  6
BYBLOCK
 62
     0
 10
288.259542
 20
35.265466
 30
0.0
  0
POINT
  8
DEFPOINTS
  6
BYBLOCK
 62
     0
 10
287.476575
 20
36.270043
 30
0.0
  0
POINT
  8
DEFPOINTS
  6
BYBLOCK
 62
     0
 10
288.244542
 20
36.270043
 30
0.0
  0
ENDBLK
  8
0
  0
BLOCK
  8
0
  2
*D25
 70
    65
 10
0.0
 20
0.0
 30
0.0
  3
*D
  0
LINE
  8
0
  6
BYBLOCK
 62
     0
 10
286.416575
 20
34.915466
 30
0.0
 11
288.259542
 21
34.915466
 31
0.0
  0
LINE
  8
0
  6
BYBLOCK
 62
     0
 10
287.041575
 20
35.265466
 30
0.0
 11
288.259542
 21
35.265466
 31
0.0
  0
LINE
  8
0
  6
BYBLOCK
 62
     0
 10
288.244542
 20
34.765466
 30
0.0
 11
288.244542
 21
34.615466
 31
0.0
  0
LINE
  8
0
  6
BYBLOCK
 62
     0
 10
288.244542
 20
35.415466
 30
0.0
 11
288.244542
 21
35.565466
 31
0.0
  0
SOLID
  8
0
  6
BYBLOCK
 62
     0
 10
288.219542
 20
34.765466
 30
0.0
 11
288.269542
 21
34.765466
 31
0.0
 12
288.244542
 22
34.915466
 32
0.0
 13
288.244542
 23
34.915466
 33
0.0
  0
SOLID
  8
0
  6
BYBLOCK
 62
     0
 10
288.219542
 20
35.415466
 30
0.0
 11
288.269542
 21
35.415466
 31
0.0
 12
288.244542
 22
35.265466
 32
0.0
 13
288.244542
 23
35.265466
 33
0.0
  0
LINE
  8
0
  6
BYBLOCK
 62
     0
 10
288.244542
 20
34.915466
 30
0.0
 11
288.244542
 21
35.265466
 31
0.0
  0
TEXT
  8
0
  6
BYBLOCK
 62
     0
 10
288.207042
 20
34.965466
 30
0.0
 40
0.075
  1
0.35
 50
90.0
  7
ROMANC
 72
     1
 11
288.169542
 21
35.090466
 31
0.0
 73
     2
  0
POINT
  8
DEFPOINTS
  6
BYBLOCK
 62
     0
 10
286.401575
 20
34.915466
 30
0.0
  0
POINT
  8
DEFPOINTS
  6
BYBLOCK
 62
     0
 10
287.026575
 20
35.265466
 30
0.0
  0
POINT
  8
DEFPOINTS
  6
BYBLOCK
 62
     0
 10
288.244542
 20
35.265466
 30
0.0
  0
ENDBLK
  8
0
  0
BLOCK
  8
0
  2
*D26
 70
    65
 10
0.0
 20
0.0
 30
0.0
  3
*D
  0
LINE
  8
0
  6
BYBLOCK
 62
     0
 10
286.416575
 20
34.915466
 30
0.0
 11
288.56191
 21
34.915466
 31
0.0
  0
LINE
  8
0
  6
BYBLOCK
 62
     0
 10
286.416575
 20
37.415466
 30
0.0
 11
288.56191
 21
37.415466
 31
0.0
  0
LINE
  8
0
  6
BYBLOCK
 62
     0
 10
288.54691
 20
35.065466
 30
0.0
 11
288.54691
 21
37.265466
 31
0.0
  0
SOLID
  8
0
  6
BYBLOCK
 62
     0
 10
288.52191
 20
35.065466
 30
0.0
 11
288.57191
 21
35.065466
 31
0.0
 12
288.54691
 22
34.915466
 32
0.0
 13
288.54691
 23
34.915466
 33
0.0
  0
SOLID
  8
0
  6
BYBLOCK
 62
     0
 10
288.52191
 20
37.265466
 30
0.0
 11
288.57191
 21
37.265466
 31
0.0
 12
288.54691
 22
37.415466
 32
0.0
 13
288.54691
 23
37.415466
 33
0.0
  0
TEXT
  8
0
  6
BYBLOCK
 62
     0
 10
288.50941
 20
36.040466
 30
0.0
 40
0.075
  1
2.50
 50
90.0
  7
ROMANC
 72
     1
 11
288.47191
 21
36.165466
 31
0.0
 73
     2
  0
POINT
  8
DEFPOINTS
  6
BYBLOCK
 62
     0
 10
286.401575
 20
34.915466
 30
0.0
  0
POINT
  8
DEFPOINTS
  6
BYBLOCK
 62
     0
 10
286.401575
 20
37.415466
 30
0.0
  0
POINT
  8
DEFPOINTS
  6
BYBLOCK
 62
     0
 10
288.54691
 20
37.415466
 30
0.0
  0
ENDBLK
  8
0
  0
ENDSEC
  0
SECTION
  2
ENTITIES
  0
TEXT
  8
0
 10
283.887846
 20
40.56142
 30
0.0
 40
0.3
  1
P = 87.9 dm
  7
ROMANC
  0
TEXT
  8
0
 10
287.093245
 20
41.564915
 30
0.0
 40
0.1
  1
2
  7
ROMANC
  0
TEXT
  8
0
 10
283.925768
 20
41.857589
 30
0.0
 40
0.3
  1
ESCALA  1:50
  7
ROMANC
  0
TEXT
  8
0
 10
283.925768
 20
42.343303
 30
0.0
 40
0.3
  1
TIPUS   NT508
  7
ROMANC
  0
TEXT
  8
0
 10
283.938862
 20
41.258999
 30
0.0
 40
0.3
  1
S = 508 dm
  7
ROMANC
  0
LINE
  8
0
 10
284.198553
 20
35.255466
 30
0.0
 11
284.798553
 21
35.255466
 31
0.0
  0
LINE
  8
0
 10
284.798553
 20
35.255466
 30
0.0
 11
284.798553
 21
34.956957
 31
0.0
  0
ARC
  8
0
 10
285.433553
 20
38.846716
 30
0.0
 40
3.94125
 50
260.728298
 51
279.271702
  0
LINE
  8
0
 10
286.068553
 20
34.956957
 30
0.0
 11
286.068553
 21
35.255466
 31
0.0
  0
LINE
  8
0
 10
286.068553
 20
35.255466
 30
0.0
 11
286.668553
 21
35.255466
 31
0.0
  0
LINE
  8
0
 10
286.668553
 20
35.255466
 30
0.0
 11
286.668553
 21
36.265466
 31
0.0
  0
ARC
  8
0
 10
285.57721
 20
36.265466
 30
0.0
 40
1.091343
 50
360.0
 51
23.80839
  0
ARC
  8
0
 10
285.507496
 20
36.234706
 30
0.0
 40
1.167542
 50
23.80839
 51
46.808739
  0
ARC
  8
0
 10
285.462612
 20
36.186895
 30
0.0
 40
1.23312
 50
46.808739
 51
68.751253
  0
ARC
  8
0
 10
285.433553
 20
36.112167
 30
0.0
 40
1.313299
 50
68.751253
 51
90.0
  0
ARC
  8
0
 10
285.433553
 20
36.112167
 30
0.0
 40
1.313299
 50
90.0
 51
111.248747
  0
ARC
  8
0
 10
285.404495
 20
36.186895
 30
0.0
 40
1.23312
 50
111.248747
 51
133.191261
  0
ARC
  8
0
 10
285.359611
 20
36.234706
 30
0.0
 40
1.167542
 50
133.191261
 51
156.19161
  0
ARC
  8
0
 10
285.289897
 20
36.265466
 30
0.0
 40
1.091343
 50
156.19161
 51
180.0
  0
LINE
  8
0
 10
284.198553
 20
36.265466
 30
0.0
 11
284.198553
 21
35.255466
 31
0.0
  0
LINE
  8
0
 10
284.203553
 20
35.260466
 30
0.0
 11
284.803553
 21
35.260466
 31
0.0
  0
LINE
  8
0
 10
284.803553
 20
35.260466
 30
0.0
 11
284.803553
 21
34.961209
 31
0.0
  0
ARC
  8
0
 10
285.433553
 20
38.846716
 30
0.0
 40
3.93625
 50
260.790155
 51
279.209845
  0
LINE
  8
0
 10
286.063553
 20
34.961209
 30
0.0
 11
286.063553
 21
35.260466
 31
0.0
  0
LINE
  8
0
 10
286.063553
 20
35.260466
 30
0.0
 11
286.663553
 21
35.260466
 31
0.0
  0
LINE
  8
0
 10
286.663553
 20
35.260466
 30
0.0
 11
286.663553
 21
36.265466
 31
0.0
  0
ARC
  8
0
 10
285.57721
 20
36.265466
 30
0.0
 40
1.086343
 50
0.0
 51
23.80839
  0
ARC
  8
0
 10
285.507496
 20
36.234706
 30
0.0
 40
1.162542
 50
23.80839
 51
46.808739
  0
ARC
  8
0
 10
285.462612
 20
36.186895
 30
0.0
 40
1.22812
 50
46.808739
 51
68.751253
  0
ARC
  8
0
 10
285.433553
 20
36.112167
 30
0.0
 40
1.308299
 50
68.751253
 51
90.0
  0
ARC
  8
0
 10
285.433553
 20
36.112167
 30
0.0
 40
1.308299
 50
90.0
 51
111.248747
  0
ARC
  8
0
 10
285.404495
 20
36.186895
 30
0.0
 40
1.22812
 50
111.248747
 51
133.191261
  0
ARC
  8
0
 10
285.359611
 20
36.234706
 30
0.0
 40
1.162542
 50
133.191261
 51
156.19161
  0
ARC
  8
0
 10
285.289897
 20
36.265466
 30
0.0
 40
1.086343
 50
156.19161
 51
180.0
  0
LINE
  8
0
 10
284.203553
 20
36.265466
 30
0.0
 11
284.203553
 21
35.260466
 31
0.0
  0
LINE
  8
0
  6
BYBLOCK
 62
     0
 10
285.448553
 20
34.915466
 30
0.0
 11
287.593888
 21
34.915466
 31
0.0
  0
LINE
  8
0
  6
BYBLOCK
 62
     0
 10
285.448553
 20
37.415466
 30
0.0
 11
287.593888
 21
37.415466
 31
0.0
  0
LINE
  8
0
  6
BYBLOCK
 62
     0
 10
287.578888
 20
35.065466
 30
0.0
 11
287.578888
 21
37.265466
 31
0.0
  0
SOLID
  8
0
  6
BYBLOCK
 62
     0
 10
287.553888
 20
35.065466
 30
0.0
 11
287.603888
 21
35.065466
 31
0.0
 12
287.578888
 22
34.915466
 32
0.0
 13
287.578888
 23
34.915466
 33
0.0
  0
SOLID
  8
0
  6
BYBLOCK
 62
     0
 10
287.553888
 20
37.265466
 30
0.0
 11
287.603888
 21
37.265466
 31
0.0
 12
287.578888
 22
37.415466
 32
0.0
 13
287.578888
 23
37.415466
 33
0.0
  0
TEXT
  8
0
  6
BYBLOCK
 62
     0
 10
287.541388
 20
36.040466
 30
0.0
 40
0.075
  1
2.50
 50
90.0
  7
ROMANC
 72
     1
 11
287.503888
 21
36.165466
 31
0.0
 73
     2
  0
POINT
  8
DEFPOINTS
  6
BYBLOCK
 62
     0
 10
285.433553
 20
34.915466
 30
0.0
  0
POINT
  8
DEFPOINTS
  6
BYBLOCK
 62
     0
 10
285.433553
 20
37.415466
 30
0.0
  0
POINT
  8
DEFPOINTS
  6
BYBLOCK
 62
     0
 10
287.578888
 20
37.415466
 30
0.0
  0
LINE
  8
0
  6
BYBLOCK
 62
     0
 10
287.27652
 20
35.265466
 30
0.0
 11
287.26152
 21
35.265466
 31
0.0
  0
LINE
  8
0
  6
BYBLOCK
 62
     0
 10
286.523553
 20
36.270043
 30
0.0
 11
287.29152
 21
36.270043
 31
0.0
  0
LINE
  8
0
  6
BYBLOCK
 62
     0
 10
287.27652
 20
35.415466
 30
0.0
 11
287.27652
 21
36.120043
 31
0.0
  0
SOLID
  8
0
  6
BYBLOCK
 62
     0
 10
287.25152
 20
35.415466
 30
0.0
 11
287.30152
 21
35.415466
 31
0.0
 12
287.27652
 22
35.265466
 32
0.0
 13
287.27652
 23
35.265466
 33
0.0
  0
SOLID
  8
0
  6
BYBLOCK
 62
     0
 10
287.25152
 20
36.120043
 30
0.0
 11
287.30152
 21
36.120043
 31
0.0
 12
287.27652
 22
36.270043
 32
0.0
 13
287.27652
 23
36.270043
 33
0.0
  0
TEXT
  8
0
  6
BYBLOCK
 62
     0
 10
287.23902
 20
35.637398
 30
0.0
 40
0.075
  1
1.00
 50
90.0
  7
ROMANC
 72
     1
 11
287.20152
 21
35.767755
 31
0.0
 73
     2
  0
POINT
  8
DEFPOINTS
  6
BYBLOCK
 62
     0
 10
287.29152
 20
35.265466
 30
0.0
  0
POINT
  8
DEFPOINTS
  6
BYBLOCK
 62
     0
 10
286.508553
 20
36.270043
 30
0.0
  0
POINT
  8
DEFPOINTS
  6
BYBLOCK
 62
     0
 10
287.27652
 20
36.270043
 30
0.0
  0
LINE
  8
0
  6
BYBLOCK
 62
     0
 10
285.448553
 20
34.915466
 30
0.0
 11
287.29152
 21
34.915466
 31
0.0
  0
LINE
  8
0
  6
BYBLOCK
 62
     0
 10
286.073553
 20
35.265466
 30
0.0
 11
287.29152
 21
35.265466
 31
0.0
  0
LINE
  8
0
  6
BYBLOCK
 62
     0
 10
287.27652
 20
34.765466
 30
0.0
 11
287.27652
 21
34.615466
 31
0.0
  0
LINE
  8
0
  6
BYBLOCK
 62
     0
 10
287.27652
 20
35.415466
 30
0.0
 11
287.27652
 21
35.565466
 31
0.0
  0
SOLID
  8
0
  6
BYBLOCK
 62
     0
 10
287.25152
 20
34.765466
 30
0.0
 11
287.30152
 21
34.765466
 31
0.0
 12
287.27652
 22
34.915466
 32
0.0
 13
287.27652
 23
34.915466
 33
0.0
  0
SOLID
  8
0
  6
BYBLOCK
 62
     0
 10
287.25152
 20
35.415466
 30
0.0
 11
287.30152
 21
35.415466
 31
0.0
 12
287.27652
 22
35.265466
 32
0.0
 13
287.27652
 23
35.265466
 33
0.0
  0
LINE
  8
0
  6
BYBLOCK
 62
     0
 10
287.27652
 20
34.915466
 30
0.0
 11
287.27652
 21
35.265466
 31
0.0
  0
TEXT
  8
0
  6
BYBLOCK
 62
     0
 10
287.23902
 20
34.965466
 30
0.0
 40
0.075
  1
0.35
 50
90.0
  7
ROMANC
 72
     1
 11
287.20152
 21
35.090466
 31
0.0
 73
     2
  0
POINT
  8
DEFPOINTS
  6
BYBLOCK
 62
     0
 10
285.433553
 20
34.915466
 30
0.0
  0
POINT
  8
DEFPOINTS
  6
BYBLOCK
 62
     0
 10
286.058553
 20
35.265466
 30
0.0
  0
POINT
  8
DEFPOINTS
  6
BYBLOCK
 62
     0
 10
287.27652
 20
35.265466
 30
0.0
  0
LINE
  8
0
  6
BYBLOCK
 62
     0
 10
285.448553
 20
34.915466
 30
0.0
 11
287.010382
 21
34.915466
 31
0.0
  0
LINE
  8
0
  6
BYBLOCK
 62
     0
 10
286.073553
 20
34.965466
 30
0.0
 11
287.010382
 21
34.965466
 31
0.0
  0
LINE
  8
0
  6
BYBLOCK
 62
     0
 10
286.995382
 20
34.765466
 30
0.0
 11
286.995382
 21
34.615466
 31
0.0
  0
LINE
  8
0
  6
BYBLOCK
 62
     0
 10
286.995382
 20
35.115466
 30
0.0
 11
286.995382
 21
35.265466
 31
0.0
  0
SOLID
  8
0
  6
BYBLOCK
 62
     0
 10
286.970382
 20
34.765466
 30
0.0
 11
287.020382
 21
34.765466
 31
0.0
 12
286.995382
 22
34.915466
 32
0.0
 13
286.995382
 23
34.915466
 33
0.0
  0
SOLID
  8
0
  6
BYBLOCK
 62
     0
 10
286.970382
 20
35.115466
 30
0.0
 11
287.020382
 21
35.115466
 31
0.0
 12
286.995382
 22
34.965466
 32
0.0
 13
286.995382
 23
34.965466
 33
0.0
  0
LINE
  8
0
  6
BYBLOCK
 62
     0
 10
286.995382
 20
34.915466
 30
0.0
 11
286.995382
 21
34.965466
 31
0.0
  0
TEXT
  8
0
  6
BYBLOCK
 62
     0
 10
286.957882
 20
34.647034
 30
0.0
 40
0.075
  1
0.05
 50
90.0
  7
ROMANC
 72
     1
 11
286.920382
 21
34.772034
 31
0.0
 73
     2
  0
POINT
  8
DEFPOINTS
  6
BYBLOCK
 62
     0
 10
285.433553
 20
34.915466
 30
0.0
  0
POINT
  8
DEFPOINTS
  6
BYBLOCK
 62
     0
 10
286.058553
 20
34.965466
 30
0.0
  0
POINT
  8
DEFPOINTS
  6
BYBLOCK
 62
     0
 10
286.995382
 20
34.965466
 30
0.0
  0
LINE
  8
0
  6
BYBLOCK
 62
     0
 10
286.058553
 20
35.250466
 30
0.0
 11
286.058553
 21
34.521364
 31
0.0
  0
LINE
  8
0
  6
BYBLOCK
 62
     0
 10
286.658553
 20
35.250466
 30
0.0
 11
286.658553
 21
34.521364
 31
0.0
  0
LINE
  8
0
  6
BYBLOCK
 62
     0
 10
285.908553
 20
34.536364
 30
0.0
 11
285.758553
 21
34.536364
 31
0.0
  0
LINE
  8
0
  6
BYBLOCK
 62
     0
 10
286.808553
 20
34.536364
 30
0.0
 11
286.958553
 21
34.536364
 31
0.0
  0
SOLID
  8
0
  6
BYBLOCK
 62
     0
 10
285.908553
 20
34.561364
 30
0.0
 11
285.908553
 21
34.511364
 31
0.0
 12
286.058553
 22
34.536364
 32
0.0
 13
286.058553
 23
34.536364
 33
0.0
  0
SOLID
  8
0
  6
BYBLOCK
 62
     0
 10
286.808553
 20
34.561364
 30
0.0
 11
286.808553
 21
34.511364
 31
0.0
 12
286.658553
 22
34.536364
 32
0.0
 13
286.658553
 23
34.536364
 33
0.0
  0
LINE
  8
0
  6
BYBLOCK
 62
     0
 10
286.058553
 20
34.536364
 30
0.0
 11
286.658553
 21
34.536364
 31
0.0
  0
TEXT
  8
0
  6
BYBLOCK
 62
     0
 10
286.233553
 20
34.573864
 30
0.0
 40
0.075
  1
0.60
  7
ROMANC
 72
     1
 11
286.358553
 21
34.611364
 31
0.0
 73
     2
  0
POINT
  8
DEFPOINTS
  6
BYBLOCK
 62
     0
 10
286.058553
 20
35.265466
 30
0.0
  0
POINT
  8
DEFPOINTS
  6
BYBLOCK
 62
     0
 10
286.658553
 20
35.265466
 30
0.0
  0
POINT
  8
DEFPOINTS
  6
BYBLOCK
 62
     0
 10
286.658553
 20
34.536364
 30
0.0
  0
LINE
  8
0
  6
BYBLOCK
 62
     0
 10
284.808553
 20
35.250466
 30
0.0
 11
284.808553
 21
34.521364
 31
0.0
  0
LINE
  8
0
  6
BYBLOCK
 62
     0
 10
286.058553
 20
35.250466
 30
0.0
 11
286.058553
 21
34.521364
 31
0.0
  0
LINE
  8
0
  6
BYBLOCK
 62
     0
 10
284.958553
 20
34.536364
 30
0.0
 11
285.908553
 21
34.536364
 31
0.0
  0
SOLID
  8
0
  6
BYBLOCK
 62
     0
 10
284.958553
 20
34.561364
 30
0.0
 11
284.958553
 21
34.511364
 31
0.0
 12
284.808553
 22
34.536364
 32
0.0
 13
284.808553
 23
34.536364
 33
0.0
  0
SOLID
  8
0
  6
BYBLOCK
 62
     0
 10
285.908553
 20
34.561364
 30
0.0
 11
285.908553
 21
34.511364
 31
0.0
 12
286.058553
 22
34.536364
 32
0.0
 13
286.058553
 23
34.536364
 33
0.0
  0
TEXT
  8
0
  6
BYBLOCK
 62
     0
 10
285.303196
 20
34.573864
 30
0.0
 40
0.075
  1
1.25
  7
ROMANC
 72
     1
 11
285.433553
 21
34.611364
 31
0.0
 73
     2
  0
POINT
  8
DEFPOINTS
  6
BYBLOCK
 62
     0
 10
284.808553
 20
35.265466
 30
0.0
  0
POINT
  8
DEFPOINTS
  6
BYBLOCK
 62
     0
 10
286.058553
 20
35.265466
 30
0.0
  0
POINT
  8
DEFPOINTS
  6
BYBLOCK
 62
     0
 10
286.058553
 20
34.536364
 30
0.0
  0
LINE
  8
0
  6
BYBLOCK
 62
     0
 10
284.208553
 20
35.250466
 30
0.0
 11
284.208553
 21
34.521364
 31
0.0
  0
LINE
  8
0
  6
BYBLOCK
 62
     0
 10
284.808553
 20
35.250466
 30
0.0
 11
284.808553
 21
34.521364
 31
0.0
  0
LINE
  8
0
  6
BYBLOCK
 62
     0
 10
284.058553
 20
34.536364
 30
0.0
 11
283.908553
 21
34.536364
 31
0.0
  0
LINE
  8
0
  6
BYBLOCK
 62
     0
 10
284.958553
 20
34.536364
 30
0.0
 11
285.108553
 21
34.536364
 31
0.0
  0
SOLID
  8
0
  6
BYBLOCK
 62
     0
 10
284.058553
 20
34.561364
 30
0.0
 11
284.058553
 21
34.511364
 31
0.0
 12
284.208553
 22
34.536364
 32
0.0
 13
284.208553
 23
34.536364
 33
0.0
  0
SOLID
  8
0
  6
BYBLOCK
 62
     0
 10
284.958553
 20
34.561364
 30
0.0
 11
284.958553
 21
34.511364
 31
0.0
 12
284.808553
 22
34.536364
 32
0.0
 13
284.808553
 23
34.536364
 33
0.0
  0
LINE
  8
0
  6
BYBLOCK
 62
     0
 10
284.208553
 20
34.536364
 30
0.0
 11
284.808553
 21
34.536364
 31
0.0
  0
TEXT
  8
0
  6
BYBLOCK
 62
     0
 10
284.383553
 20
34.573864
 30
0.0
 40
0.075
  1
0.60
  7
ROMANC
 72
     1
 11
284.508553
 21
34.611364
 31
0.0
 73
     2
  0
POINT
  8
DEFPOINTS
  6
BYBLOCK
 62
     0
 10
284.208553
 20
35.265466
 30
0.0
  0
POINT
  8
DEFPOINTS
  6
BYBLOCK
 62
     0
 10
284.808553
 20
35.265466
 30
0.0
  0
POINT
  8
DEFPOINTS
  6
BYBLOCK
 62
     0
 10
284.808553
 20
34.536364
 30
0.0
  0
LINE
  8
0
  6
BYBLOCK
 62
     0
 10
284.208553
 20
36.280466
 30
0.0
 11
284.208553
 21
36.285043
 31
0.0
  0
LINE
  8
0
  6
BYBLOCK
 62
     0
 10
286.658553
 20
36.280466
 30
0.0
 11
286.658553
 21
36.285043
 31
0.0
  0
LINE
  8
0
  6
BYBLOCK
 62
     0
 10
284.358553
 20
36.270043
 30
0.0
 11
286.508553
 21
36.270043
 31
0.0
  0
SOLID
  8
0
  6
BYBLOCK
 62
     0
 10
284.358553
 20
36.295043
 30
0.0
 11
284.358553
 21
36.245043
 31
0.0
 12
284.208553
 22
36.270043
 32
0.0
 13
284.208553
 23
36.270043
 33
0.0
  0
SOLID
  8
0
  6
BYBLOCK
 62
     0
 10
286.508553
 20
36.295043
 30
0.0
 11
286.508553
 21
36.245043
 31
0.0
 12
286.658553
 22
36.270043
 32
0.0
 13
286.658553
 23
36.270043
 33
0.0
  0
TEXT
  8
0
  6
BYBLOCK
 62
     0
 10
285.308553
 20
36.307543
 30
0.0
 40
0.075
  1
2.45
  7
ROMANC
 72
     1
 11
285.433553
 21
36.345043
 31
0.0
 73
     2
  0
POINT
  8
DEFPOINTS
  6
BYBLOCK
 62
     0
 10
284.208553
 20
36.265466
 30
0.0
  0
POINT
  8
DEFPOINTS
  6
BYBLOCK
 62
     0
 10
286.658553
 20
36.265466
 30
0.0
  0
POINT
  8
DEFPOINTS
  6
BYBLOCK
 62
     0
 10
286.658553
 20
36.270043
 30
0.0
  0
LINE
  8
0
 10
284.208553
 20
35.265466
 30
0.0
 11
284.808553
 21
35.265466
 31
0.0
  0
LINE
  8
0
 10
284.808553
 20
35.265466
 30
0.0
 11
284.808553
 21
34.965466
 31
0.0
  0
ARC
  8
0
 10
285.433553
 20
38.846716
 30
0.0
 40
3.93125
 50
260.852157
 51
279.147843
  0
LINE
  8
0
 10
286.058553
 20
34.965466
 30
0.0
 11
286.058553
 21
35.265466
 31
0.0
  0
LINE
  8
0
 10
286.058553
 20
35.265466
 30
0.0
 11
286.658553
 21
35.265466
 31
0.0
  0
LINE
  8
0
 10
286.658553
 20
35.265466
 30
0.0
 11
286.658553
 21
36.265466
 31
0.0
  0
ARC
  8
0
 10
285.57721
 20
36.265466
 30
0.0
 40
1.081343
 50
0.0
 51
23.80839
  0
ARC
  8
0
 10
285.507496
 20
36.234706
 30
0.0
 40
1.157542
 50
23.80839
 51
46.808739
  0
ARC
  8
0
 10
285.462612
 20
36.186895
 30
0.0
 40
1.22312
 50
46.808739
 51
68.751253
  0
ARC
  8
0
 10
285.433553
 20
36.112167
 30
0.0
 40
1.303299
 50
68.751253
 51
90.0
  0
ARC
  8
0
 10
285.433553
 20
36.112167
 30
0.0
 40
1.303299
 50
90.0
 51
111.248747
  0
ARC
  8
0
 10
285.404495
 20
36.186895
 30
0.0
 40
1.22312
 50
111.248747
 51
133.191261
  0
ARC
  8
0
 10
285.359611
 20
36.234706
 30
0.0
 40
1.157542
 50
133.191261
 51
156.19161
  0
ARC
  8
0
 10
285.289897
 20
36.265466
 30
0.0
 40
1.081343
 50
156.19161
 51
180.0
  0
LINE
  8
0
 10
284.208553
 20
36.265466
 30
0.0
 11
284.208553
 21
35.265466
 31
0.0
  0
LINE
  8
0
 10
281.395795
 20
29.897444
 30
0.0
 11
281.395795
 21
44.747444
 31
0.0
  0
LINE
  8
0
 10
281.395795
 20
44.747444
 30
0.0
 11
291.895795
 21
44.747444
 31
0.0
  0
LINE
  8
0
 10
291.895795
 20
44.747444
 30
0.0
 11
291.895795
 21
29.897444
 31
0.0
  0
LINE
  8
0
 10
291.895795
 20
29.897444
 30
0.0
 11
281.395795
 21
29.897444
 31
0.0
  0
ENDSEC
  0
EOF
