  0
SECTION
  2
HEADER
  9
$ACADVER
  1
AC1009
  9
$INSBASE
 10
191.105383
 20
-3.041453
 30
0.0
  9
$EXTMIN
 10
191.105383
 20
-3.041453
 30
0.0
  9
$EXTMAX
 10
201.605383
 20
11.808547
 30
0.0
  9
$LIMMIN
 10
0.0
 20
0.0
  9
$LIMMAX
 10
410.0
 20
287.0
  9
$ORTHOMODE
 70
     0
  9
$REGENMODE
 70
     1
  9
$FILLMODE
 70
     1
  9
$QTEXTMODE
 70
     0
  9
$MIRRTEXT
 70
     1
  9
$DRAGMODE
 70
     2
  9
$LTSCALE
 40
25.0
  9
$OSMODE
 70
    32
  9
$ATTMODE
 70
     1
  9
$TEXTSIZE
 40
0.1
  9
$TRACEWID
 40
1.0
  9
$TEXTSTYLE
  7
ROMANC
  9
$CLAYER
  8
0
  9
$CELTYPE
  6
BYLAYER
  9
$CECOLOR
 62
   256
  9
$DIMSCALE
 40
0.0
  9
$DIMASZ
 40
0.0
  9
$DIMEXO
 40
0.1
  9
$DIMDLI
 40
7.0
  9
$DIMRND
 40
0.0
  9
$DIMDLE
 40
0.0
  9
$DIMEXE
 40
1.8
  9
$DIMTP
 40
0.0
  9
$DIMTM
 40
0.0
  9
$DIMTXT
 40
0.03
  9
$DIMCEN
 40
1.5
  9
$DIMTSZ
 40
1.0
  9
$DIMTOL
 70
     0
  9
$DIMLIM
 70
     0
  9
$DIMTIH
 70
     0
  9
$DIMTOH
 70
     0
  9
$DIMSE1
 70
     0
  9
$DIMSE2
 70
     0
  9
$DIMTAD
 70
     0
  9
$DIMZIN
 70
     0
  9
$DIMBLK
  1

  9
$DIMASO
 70
     1
  9
$DIMSHO
 70
     0
  9
$DIMPOST
  1

  9
$DIMAPOST
  1

  9
$DIMALT
 70
     0
  9
$DIMALTD
 70
     2
  9
$DIMALTF
 40
25.4
  9
$DIMLFAC
 40
1.0
  9
$DIMTOFL
 70
     1
  9
$DIMTVP
 40
0.0
  9
$DIMTIX
 70
     1
  9
$DIMSOXD
 70
     0
  9
$DIMSAH
 70
     0
  9
$DIMBLK1
  1

  9
$DIMBLK2
  1

  9
$DIMSTYLE
  2
*UNNAMED
  9
$DIMCLRD
 70
     0
  9
$DIMCLRE
 70
     0
  9
$DIMCLRT
 70
     0
  9
$DIMTFAC
 40
116.666667
  9
$DIMGAP
 40
0.09
  9
$LUNITS
 70
     2
  9
$LUPREC
 70
     2
  9
$SKETCHINC
 40
1.0
  9
$FILLETRAD
 40
0.0
  9
$AUNITS
 70
     0
  9
$AUPREC
 70
     0
  9
$MENU
  1
acad
  9
$ELEVATION
 40
0.0
  9
$PELEVATION
 40
0.0
  9
$THICKNESS
 40
0.0
  9
$LIMCHECK
 70
     0
  9
$BLIPMODE
 70
     0
  9
$CHAMFERA
 40
0.0
  9
$CHAMFERB
 40
0.0
  9
$SKPOLY
 70
     0
  9
$TDCREATE
 40
2449967.532784259
  9
$TDUPDATE
 40
2450239.580831944
  9
$TDINDWG
 40
0.0209593750
  9
$TDUSRTIMER
 40
0.0209593750
  9
$USRTIMER
 70
     1
  9
$ANGBASE
 50
0.0
  9
$ANGDIR
 70
     0
  9
$PDMODE
 70
     0
  9
$PDSIZE
 40
0.0
  9
$PLINEWID
 40
0.0
  9
$COORDS
 70
     2
  9
$SPLFRAME
 70
     0
  9
$SPLINETYPE
 70
     6
  9
$SPLINESEGS
 70
     8
  9
$ATTDIA
 70
     0
  9
$ATTREQ
 70
     1
  9
$HANDLING
 70
     0
  9
$HANDSEED
  5
0
  9
$SURFTAB1
 70
     6
  9
$SURFTAB2
 70
     6
  9
$SURFTYPE
 70
     6
  9
$SURFU
 70
     6
  9
$SURFV
 70
     6
  9
$UCSNAME
  2

  9
$UCSORG
 10
0.0
 20
0.0
 30
0.0
  9
$UCSXDIR
 10
1.0
 20
0.0
 30
0.0
  9
$UCSYDIR
 10
0.0
 20
1.0
 30
0.0
  9
$PUCSNAME
  2

  9
$PUCSORG
 10
0.0
 20
0.0
 30
0.0
  9
$PUCSXDIR
 10
1.0
 20
0.0
 30
0.0
  9
$PUCSYDIR
 10
0.0
 20
1.0
 30
0.0
  9
$USERI1
 70
     0
  9
$USERI2
 70
     0
  9
$USERI3
 70
     0
  9
$USERI4
 70
     0
  9
$USERI5
 70
     0
  9
$USERR1
 40
0.0
  9
$USERR2
 40
0.0
  9
$USERR3
 40
0.0
  9
$USERR4
 40
0.0
  9
$USERR5
 40
0.0
  9
$WORLDVIEW
 70
     1
  9
$SHADEDGE
 70
     3
  9
$SHADEDIF
 70
    70
  9
$TILEMODE
 70
     1
  9
$MAXACTVP
 70
    16
  9
$PINSBASE
 10
0.0
 20
0.0
 30
0.0
  9
$PLIMCHECK
 70
     0
  9
$PEXTMIN
 10
1.000000E+20
 20
1.000000E+20
 30
1.000000E+20
  9
$PEXTMAX
 10
-1.000000E+20
 20
-1.000000E+20
 30
-1.000000E+20
  9
$PLIMMIN
 10
0.0
 20
0.0
  9
$PLIMMAX
 10
12.0
 20
9.0
  9
$UNITMODE
 70
     0
  9
$VISRETAIN
 70
     0
  9
$PLINEGEN
 70
     0
  9
$PSLTSCALE
 70
     0
  9
$TREEDEPTH
 70
  3020
  9
$DWGCODEPAGE
  3
iso8859-1
  0
ENDSEC
  0
SECTION
  2
TABLES
  0
TABLE
  2
VPORT
 70
     2
  0
VPORT
  2
*ACTIVE
 70
     0
 10
0.0
 20
0.0
 11
1.0
 21
1.0
 12
203.356633
 22
4.383547
 13
0.0
 23
0.0
 14
1.0
 24
1.0
 15
10.0
 25
10.0
 16
0.0
 26
0.0
 36
1.0
 17
0.0
 27
0.0
 37
0.0
 40
14.85
 41
1.65
 42
50.0
 43
0.0
 44
0.0
 50
0.0
 51
0.0
 71
     0
 72
   100
 73
     1
 74
     0
 75
     0
 76
     0
 77
     0
 78
     2
  0
ENDTAB
  0
TABLE
  2
LTYPE
 70
     1
  0
LTYPE
  2
CONTINUOUS
 70
    64
  3
Solid line
 72
    65
 73
     0
 40
0.0
  0
ENDTAB
  0
TABLE
  2
LAYER
 70
     2
  0
LAYER
  2
0
 70
    64
 62
     7
  6
CONTINUOUS
  0
LAYER
  2
MESURA
 70
     0
 62
     7
  6
CONTINUOUS
  0
ENDTAB
  0
TABLE
  2
STYLE
 70
     2
  0
STYLE
  2
STANDARD
 70
     0
 40
0.0
 41
1.0
 50
0.0
 71
     0
 42
0.1
  3
txt
  4

  0
STYLE
  2
ROMANC
 70
    64
 40
0.0
 41
1.0
 50
0.0
 71
     0
 42
0.1
  3
romanc
  4

  0
ENDTAB
  0
TABLE
  2
VIEW
 70
     0
  0
ENDTAB
  0
TABLE
  2
UCS
 70
     0
  0
ENDTAB
  0
TABLE
  2
APPID
 70
     1
  0
APPID
  2
ACAD
 70
    64
  0
ENDTAB
  0
TABLE
  2
DIMSTYLE
 70
     0
  0
ENDTAB
  0
ENDSEC
  0
SECTION
  2
BLOCKS
  0
ENDSEC
  0
SECTION
  2
ENTITIES
  0
LINE
  8
0
 10
191.105383
 20
11.808547
 30
0.0
 11
191.105383
 21
-3.041453
 31
0.0
  0
LINE
  8
0
 10
201.605383
 20
-3.041453
 30
0.0
 11
201.605383
 21
11.808547
 31
0.0
  0
LINE
  8
0
 10
191.105383
 20
-3.041453
 30
0.0
 11
201.605383
 21
-3.041453
 31
0.0
  0
LINE
  8
0
 10
201.605383
 20
11.808547
 30
0.0
 11
191.105383
 21
11.808547
 31
0.0
  0
TEXT
  8
0
 10
193.635355
 20
9.404407
 30
0.0
 40
0.3
  1
TIPUS   NT507
  7
ROMANC
  0
TEXT
  8
0
 10
193.64845
 20
8.320103
 30
0.0
 40
0.3
  1
S =  507 dm
  7
ROMANC
  0
TEXT
  8
0
 10
193.638244
 20
7.795406
 30
0.0
 40
0.3
  1
P = 89,3 dm
  7
ROMANC
  0
TEXT
  8
0
 10
193.635355
 20
8.918692
 30
0.0
 40
0.3
  1
ESCALA  1:50
  7
ROMANC
  0
TEXT
  8
0
 10
197.156281
 20
8.626019
 30
0.0
 40
0.1
  1
2
  7
ROMANC
  0
TEXT
  8
0
 10
197.439843
 20
2.098899
 30
0.0
 40
0.1
  1
2.30
  7
ROMANC
  0
TEXT
  8
0
 10
197.439843
 20
3.581585
 30
0.0
 40
0.1
  1
0.70
  7
ROMANC
  0
TEXT
  8
0
 10
195.833433
 20
0.340127
 30
0.0
 40
0.1
  1
1.80
  7
ROMANC
  0
LINE
  8
0
 10
197.247966
 20
3.305145
 30
0.0
 11
197.247966
 21
4.016979
 31
0.0
  0
LINE
  8
0
 10
197.247966
 20
4.016979
 30
0.0
 11
195.951715
 21
4.016979
 31
0.0
  0
LINE
  8
0
 10
196.87604
 20
0.995499
 30
0.0
 11
197.247966
 21
0.995499
 31
0.0
  0
LINE
  8
0
 10
197.247966
 20
0.995499
 30
0.0
 11
197.247966
 21
3.305145
 31
0.0
  0
LINE
  8
0
 10
197.247966
 20
3.305145
 30
0.0
 11
196.87604
 21
3.306728
 31
0.0
  0
LINE
  8
0
 10
196.821857
 20
0.575596
 30
0.0
 11
196.927114
 21
0.673926
 31
0.0
  0
LINE
  8
0
 10
195.016374
 20
0.581807
 30
0.0
 11
195.121631
 21
0.680137
 31
0.0
  0
LINE
  8
0
 10
195.06604
 20
1.005499
 30
0.0
 11
195.06604
 21
0.627542
 31
0.0
  0
LINE
  8
0
 10
195.06604
 20
0.627542
 30
0.0
 11
196.876674
 21
0.627542
 31
0.0
  0
LINE
  8
0
 10
196.876674
 20
0.627542
 30
0.0
 11
196.87604
 21
0.995499
 31
0.0
  0
LINE
  8
0
 10
195.07604
 20
3.277276
 30
0.0
 11
195.07604
 21
1.015499
 31
0.0
  0
LINE
  8
0
 10
195.07604
 20
1.015499
 30
0.0
 11
196.85604
 21
1.015499
 31
0.0
  0
LINE
  8
0
 10
196.85604
 20
1.015499
 30
0.0
 11
196.85604
 21
3.304263
 31
0.0
  0
ARC
  8
0
 10
195.96922
 20
3.081016
 30
0.0
 40
0.914488
 50
14.129959
 51
167.607252
  0
LINE
  8
0
 10
195.05604
 20
3.279435
 30
0.0
 11
195.05604
 21
0.995499
 31
0.0
  0
LINE
  8
0
 10
195.05604
 20
0.995499
 30
0.0
 11
196.87604
 21
0.995499
 31
0.0
  0
LINE
  8
0
 10
196.87604
 20
0.995499
 30
0.0
 11
196.87604
 21
3.306728
 31
0.0
  0
ARC
  8
0
 10
195.96922
 20
3.081016
 30
0.0
 40
0.934488
 50
13.977173
 51
167.741099
  0
LINE
  8
0
 10
195.06604
 20
3.305499
 30
0.0
 11
195.06604
 21
1.005499
 31
0.0
  0
LINE
  8
0
 10
195.06604
 20
1.005499
 30
0.0
 11
196.86604
 21
1.005499
 31
0.0
  0
LINE
  8
0
 10
196.86604
 20
1.005499
 30
0.0
 11
196.86604
 21
3.305499
 31
0.0
  0
ARC
  8
0
 10
195.96922
 20
3.081016
 30
0.0
 40
0.924488
 50
14.052943
 51
171.121861
  0
LINE
  8
0
 10
197.169742
 20
3.960211
 30
0.0
 11
197.274999
 21
4.05854
 31
0.0
  0
LINE
  8
0
 10
197.169742
 20
3.244431
 30
0.0
 11
197.274999
 21
3.342761
 31
0.0
  0
LINE
  8
0
 10
197.190205
 20
0.933486
 30
0.0
 11
197.295462
 21
1.031816
 31
0.0
  0
ENDSEC
  0
EOF
