  0
SECTION
  2
HEADER
  9
$ACADVER
  1
AC1009
  9
$INSBASE
 10
0.0
 20
0.0
 30
0.0
  9
$EXTMIN
 10
281.396000
 20
29.897000
 30
-2147483.648000
  9
$EXTMAX
 10
291.896000
 20
44.747000
 30
0.000000
  9
$LIMMIN
 10
280.396000
 20
28.897000
  9
$LIMMAX
 10
292.896000
 20
43.747000
  9
$ORTHOMODE
 70
     0
  9
$REGENMODE
 70
     1
  9
$FILLMODE
 70
     1
  9
$QTEXTMODE
 70
     0
  9
$MIRRTEXT
 70
     1
  9
$DRAGMODE
 70
     2
  9
$LTSCALE
 40
1.0
  9
$OSMODE
 70
     0
  9
$ATTMODE
 70
     1
  9
$TEXTSIZE
 40
0.2
  9
$TRACEWID
 40
0.05
  9
$TEXTSTYLE
  7
STANDARD
  9
$CLAYER
  8
0
  9
$CELTYPE
  6
BYLAYER
  9
$CECOLOR
 62
   256
  9
$DIMSCALE
 40
1.0
  9
$DIMASZ
 40
0.18
  9
$DIMEXO
 40
0.0625
  9
$DIMDLI
 40
0.38
  9
$DIMRND
 40
0.0
  9
$DIMDLE
 40
0.0
  9
$DIMEXE
 40
0.18
  9
$DIMTP
 40
0.0
  9
$DIMTM
 40
0.0
  9
$DIMTXT
 40
0.18
  9
$DIMCEN
 40
0.09
  9
$DIMTSZ
 40
0.0
  9
$DIMTOL
 70
     0
  9
$DIMLIM
 70
     0
  9
$DIMTIH
 70
     1
  9
$DIMTOH
 70
     1
  9
$DIMSE1
 70
     0
  9
$DIMSE2
 70
     0
  9
$DIMTAD
 70
     0
  9
$DIMZIN
 70
     0
  9
$DIMBLK
  1

  9
$DIMASO
 70
     1
  9
$DIMSHO
 70
     1
  9
$DIMPOST
  1

  9
$DIMAPOST
  1

  9
$DIMALT
 70
     0
  9
$DIMALTD
 70
     2
  9
$DIMALTF
 40
25.4
  9
$DIMLFAC
 40
1.0
  9
$DIMTOFL
 70
     0
  9
$DIMTVP
 40
0.0
  9
$DIMTIX
 70
     0
  9
$DIMSOXD
 70
     0
  9
$DIMSAH
 70
     0
  9
$DIMBLK1
  1

  9
$DIMBLK2
  1

  9
$DIMSTYLE
  2
*UNNAMED
  9
$DIMCLRD
 70
     0
  9
$DIMCLRE
 70
     0
  9
$DIMCLRT
 70
     0
  9
$DIMTFAC
 40
1.0
  9
$DIMGAP
 40
0.09
  9
$LUNITS
 70
     2
  9
$LUPREC
 70
     4
  9
$AXISMODE
 70
     0
  9
$AXISUNIT
 10
0.0
 20
0.0
  9
$SKETCHINC
 40
0.1
  9
$FILLETRAD
 40
0.0
  9
$AUNITS
 70
     0
  9
$AUPREC
 70
     0
  9
$MENU
  1
acad
  9
$ELEVATION
 40
0.0
  9
$PELEVATION
 40
0.0
  9
$THICKNESS
 40
0.0
  9
$LIMCHECK
 70
     0
  9
$BLIPMODE
 70
     1
  9
$CHAMFERA
 40
0.0
  9
$CHAMFERB
 40
0.0
  9
$SKPOLY
 70
     0
  9
$TDCREATE
 40
2448315.373408102
  9
$TDUPDATE
 40
2448315.373408102
  9
$TDINDWG
 40
0.0000000000
  9
$TDUSRTIMER
 40
0.0000000000
  9
$USRTIMER
 70
     1
  9
$ANGBASE
 50
0.0
  9
$ANGDIR
 70
     0
  9
$PDMODE
 70
     0
  9
$PDSIZE
 40
0.0
  9
$PLINEWID
 40
0.0
  9
$COORDS
 70
     0
  9
$SPLFRAME
 70
     0
  9
$SPLINETYPE
 70
     6
  9
$SPLINESEGS
 70
     8
  9
$ATTDIA
 70
     0
  9
$ATTREQ
 70
     1
  9
$HANDLING
 70
     0
  9
$HANDSEED
  5
0
  9
$SURFTAB1
 70
     6
  9
$SURFTAB2
 70
     6
  9
$SURFTYPE
 70
     6
  9
$SURFU
 70
     6
  9
$SURFV
 70
     6
  9
$UCSNAME
  2

  9
$UCSORG
 10
0.0
 20
0.0
 30
0.0
  9
$UCSXDIR
 10
1.0
 20
0.0
 30
0.0
  9
$UCSYDIR
 10
0.0
 20
1.0
 30
0.0
  9
$PUCSNAME
  2

  9
$PUCSORG
 10
0.0
 20
0.0
 30
0.0
  9
$PUCSXDIR
 10
1.0
 20
0.0
 30
0.0
  9
$PUCSYDIR
 10
0.0
 20
1.0
 30
0.0
  9
$USERI1
 70
     0
  9
$USERI2
 70
     0
  9
$USERI3
 70
     0
  9
$USERI4
 70
     0
  9
$USERI5
 70
     0
  9
$USERR1
 40
0.0
  9
$USERR2
 40
0.0
  9
$USERR3
 40
0.0
  9
$USERR4
 40
0.0
  9
$USERR5
 40
0.0
  9
$WORLDVIEW
 70
     1
  9
$SHADEDGE
 70
     3
  9
$SHADEDIF
 70
    70
  9
$TILEMODE
 70
     1
  9
$MAXACTVP
 70
    16
  9
$PINSBASE
 10
0.0
 20
0.0
 30
0.0
  9
$PLIMCHECK
 70
     0
  9
$PEXTMIN
 10
1.000000E+20
 20
1.000000E+20
 30
1.000000E+20
  9
$PEXTMAX
 10
-1.000000E+20
 20
-1.000000E+20
 30
-1.000000E+20
  9
$PLIMMIN
 10
0.0
 20
0.0
  9
$PLIMMAX
 10
12.0
 20
9.0
  9
$UNITMODE
 70
     0
  9
$VISRETAIN
 70
     0
  0
ENDSEC
  0
SECTION
  2
TABLES
  0
TABLE
  2
LTYPE
 70
    1
  0
LTYPE
  2
CONTINUOUS
 70
    64
  3
Solid Line
 72
    65
 73
0
 40
0.0
  0
ENDTAB
  0
TABLE
  2
LAYER
 70
    8
  0
LAYER
  2
0
 70
    64
 62
7
  6
CONTINUOUS
  0
LAYER
  2
1
 70
    64
 62
7
  6
CONTINUOUS
  0
LAYER
  2
7
 70
    64
 62
7
  6
CONTINUOUS
  0
LAYER
  2
8
 70
    64
 62
7
  6
CONTINUOUS
  0
LAYER
  2
9
 70
    64
 62
7
  6
CONTINUOUS
  0
LAYER
  2
22
 70
    64
 62
7
  6
CONTINUOUS
  0
LAYER
  2
25
 70
    64
 62
7
  6
CONTINUOUS
  0
LAYER
  2
0
 70
    64
 62
7
  6
CONTINUOUS
  0
ENDTAB
  0
TABLE
  2
STYLE
 70
    1
  0
STYLE
  2
ROMANC
70
     0
 40
0.0
 41
1.0
 50
0.0
 71
     0
 42
0.2
  3
ROMANC
  4

  0
ENDTAB
  0
ENDSEC
  0
SECTION
  2
BLOCKS
  0
ENDSEC
  0
SECTION
  2
ENTITIES
  0
TEXT
  8
0
  6
*CONTINUOUS,SOLID
 40
0.100000
 10
287.008000
 20
41.338000
  1
2
  7
ROMANC
  0
TEXT
  8
0
  6
*CONTINUOUS,SOLID
 40
0.300000
 10
283.926000
 20
41.768000
  1
ESCALA  1:50
  7
ROMANC
  0
POLYLINE
  8
0
  6
*CONTINUOUS,SOLID
 66
     1
 70
     1
  0
VERTEX
  8
0
  6
*CONTINUOUS,SOLID
 10
281.396000
 20
44.747000
  0
VERTEX
  8
0
  6
*CONTINUOUS,SOLID
 10
291.896000
 20
44.747000
  0
VERTEX
  8
0
  6
*CONTINUOUS,SOLID
 10
291.896000
 20
29.897000
  0
VERTEX
  8
0
  6
*CONTINUOUS,SOLID
 10
281.396000
 20
29.897000
  0
SEQEND
  8
0
  0
TEXT
  8
0
  6
*CONTINUOUS,SOLID
 40
0.300000
 10
283.945000
 20
41.099000
  1
S = 505 dm
  7
ROMANC
  0
TEXT
  8
0
  6
*CONTINUOUS,SOLID
 40
0.300000
 10
283.922000
 20
40.529000
  1
P = 117 dm
  7
ROMANC
  0
TEXT
  8
0
  6
*CONTINUOUS,SOLID
 40
0.300000
 10
283.926000
 20
42.381000
  1
TIPUS   NT505B
  7
ROMANC
  0
LINE
  8
1
  6
*CONTINUOUS,SOLID
 10
284.414000
 20
35.954000
 11
283.914000
 21
36.154000
  0
LINE
  8
1
  6
*CONTINUOUS,SOLID
 10
283.914000
 20
36.854000
 11
284.414000
 21
37.054000
  0
LINE
  8
1
  6
*CONTINUOUS,SOLID
 10
283.904000
 20
36.146000
 11
283.904000
 21
36.861000
  0
LINE
  8
1
  6
*CONTINUOUS,SOLID
 10
283.904000
 20
36.861000
 11
284.413000
 21
37.064000
  0
LINE
  8
1
  6
*CONTINUOUS,SOLID
 10
283.894000
 20
36.867000
 11
284.411000
 21
37.074000
  0
LINE
  8
1
  6
*CONTINUOUS,SOLID
 10
284.413000
 20
37.064000
 11
288.714000
 21
37.064000
  0
LINE
  8
1
  6
*CONTINUOUS,SOLID
 10
284.411000
 20
37.074000
 11
288.716000
 21
37.074000
  0
LINE
  8
1
  6
*CONTINUOUS,SOLID
 10
284.410000
 20
35.944000
 11
283.904000
 21
36.146000
  0
LINE
  8
1
  6
*CONTINUOUS,SOLID
 10
284.408000
 20
35.934000
 11
283.894000
 21
36.140000
  0
LINE
  8
1
  6
*CONTINUOUS,SOLID
 10
287.417000
 20
35.944000
 11
284.410000
 21
35.944000
  0
LINE
  8
1
  6
*CONTINUOUS,SOLID
 10
287.418000
 20
35.934000
 11
284.408000
 21
35.934000
  0
LINE
  8
1
  6
*CONTINUOUS,SOLID
 10
289.224000
 20
36.647000
 11
287.417000
 21
35.944000
  0
LINE
  8
1
  6
*CONTINUOUS,SOLID
 10
289.234000
 20
36.640000
 11
287.418000
 21
35.934000
  0
LINE
  8
1
  6
*CONTINUOUS,SOLID
 10
288.714000
 20
37.064000
 11
289.224000
 21
36.860000
  0
LINE
  8
1
  6
*CONTINUOUS,SOLID
 10
288.716000
 20
37.074000
 11
289.234000
 21
36.867000
  0
LINE
  8
1
  6
*CONTINUOUS,SOLID
 10
289.224000
 20
36.860000
 11
289.224000
 21
36.647000
  0
LINE
  8
1
  6
*CONTINUOUS,SOLID
 10
289.234000
 20
36.867000
 11
289.234000
 21
36.640000
  0
LINE
  8
1
  6
*CONTINUOUS,SOLID
 10
283.894000
 20
36.140000
 11
283.894000
 21
36.867000
  0
LINE
  8
1
  6
*CONTINUOUS,SOLID
 10
287.414000
 20
35.954000
 11
284.414000
 21
35.954000
  0
LINE
  8
1
  6
*CONTINUOUS,SOLID
 10
283.914000
 20
36.154000
 11
283.914000
 21
36.854000
  0
TEXT
  8
1
  6
*CONTINUOUS,SOLID
 40
0.075000
 10
283.480000
 20
35.474000
  1
0.20
 50
90.000000
  7
ROMANC
  0
LINE
  8
1
  6
*CONTINUOUS,SOLID
 10
283.443000
 20
35.824000
 11
283.443000
 21
35.954000
  0
LINE
  8
1
  6
*CONTINUOUS,SOLID
 10
283.443000
 20
36.304000
 11
283.443000
 21
36.154000
  0
LINE
  8
1
  6
*CONTINUOUS,SOLID
 10
283.424000
 20
35.992000
 11
283.462000
 21
35.916000
  0
LINE
  8
1
  6
*CONTINUOUS,SOLID
 10
283.462000
 20
36.116000
 11
283.424000
 21
36.192000
  0
LINE
  8
1
  6
*CONTINUOUS,SOLID
 10
284.376000
 20
35.954000
 11
283.405000
 21
35.954000
  0
LINE
  8
1
  6
*CONTINUOUS,SOLID
 10
283.876000
 20
36.154000
 11
283.405000
 21
36.154000
  0
TEXT
  8
1
  6
*CONTINUOUS,SOLID
 40
0.075000
 10
283.242000
 20
36.385000
  1
0.70
 50
90.000000
  7
ROMANC
  0
LINE
  8
1
  6
*CONTINUOUS,SOLID
 10
283.205000
 20
36.347000
 11
283.205000
 21
36.154000
  0
LINE
  8
1
  6
*CONTINUOUS,SOLID
 10
283.205000
 20
36.659000
 11
283.205000
 21
36.854000
  0
LINE
  8
1
  6
*CONTINUOUS,SOLID
 10
283.224000
 20
36.116000
 11
283.186000
 21
36.192000
  0
LINE
  8
1
  6
*CONTINUOUS,SOLID
 10
283.186000
 20
36.892000
 11
283.224000
 21
36.816000
  0
LINE
  8
1
  6
*CONTINUOUS,SOLID
 10
283.876000
 20
36.154000
 11
283.167000
 21
36.154000
  0
LINE
  8
1
  6
*CONTINUOUS,SOLID
 10
283.876000
 20
36.854000
 11
283.167000
 21
36.854000
  0
LINE
  8
1
  6
*CONTINUOUS,SOLID
 10
284.414000
 20
37.054000
 11
288.714000
 21
37.054000
  0
TEXT
  8
1
  6
*CONTINUOUS,SOLID
 40
0.075000
 10
283.480000
 20
37.234000
  1
0.20
 50
90.000000
  7
ROMANC
  0
LINE
  8
1
  6
*CONTINUOUS,SOLID
 10
283.443000
 20
36.704000
 11
283.443000
 21
36.854000
  0
LINE
  8
1
  6
*CONTINUOUS,SOLID
 10
283.443000
 20
37.196000
 11
283.443000
 21
37.054000
  0
LINE
  8
1
  6
*CONTINUOUS,SOLID
 10
283.424000
 20
36.892000
 11
283.462000
 21
36.816000
  0
LINE
  8
1
  6
*CONTINUOUS,SOLID
 10
283.462000
 20
37.016000
 11
283.424000
 21
37.092000
  0
LINE
  8
1
  6
*CONTINUOUS,SOLID
 10
283.876000
 20
36.854000
 11
283.405000
 21
36.854000
  0
LINE
  8
1
  6
*CONTINUOUS,SOLID
 10
284.376000
 20
37.054000
 11
283.405000
 21
37.054000
  0
LINE
  8
1
  6
*CONTINUOUS,SOLID
 10
289.214000
 20
36.654000
 11
287.414000
 21
35.954000
  0
TEXT
  8
1
  6
*CONTINUOUS,SOLID
 40
0.075000
 10
285.795000
 20
35.300000
  1
3.00
  7
ROMANC
  0
LINE
  8
1
  6
*CONTINUOUS,SOLID
 10
285.757000
 20
35.337000
 11
284.414000
 21
35.337000
  0
LINE
  8
1
  6
*CONTINUOUS,SOLID
 10
286.069000
 20
35.337000
 11
287.414000
 21
35.337000
  0
LINE
  8
1
  6
*CONTINUOUS,SOLID
 10
284.376000
 20
35.318000
 11
284.452000
 21
35.356000
  0
LINE
  8
1
  6
*CONTINUOUS,SOLID
 10
287.452000
 20
35.356000
 11
287.376000
 21
35.318000
  0
LINE
  8
1
  6
*CONTINUOUS,SOLID
 10
284.414000
 20
35.916000
 11
284.414000
 21
35.299000
  0
LINE
  8
1
  6
*CONTINUOUS,SOLID
 10
287.414000
 20
35.916000
 11
287.414000
 21
35.299000
  0
TEXT
  8
1
  6
*CONTINUOUS,SOLID
 40
0.075000
 10
288.204000
 20
35.300000
  1
1.80
  7
ROMANC
  0
LINE
  8
1
  6
*CONTINUOUS,SOLID
 10
288.166000
 20
35.337000
 11
287.414000
 21
35.337000
  0
LINE
  8
1
  6
*CONTINUOUS,SOLID
 10
288.461000
 20
35.337000
 11
289.214000
 21
35.337000
  0
LINE
  8
1
  6
*CONTINUOUS,SOLID
 10
287.376000
 20
35.318000
 11
287.452000
 21
35.356000
  0
LINE
  8
1
  6
*CONTINUOUS,SOLID
 10
289.252000
 20
35.356000
 11
289.176000
 21
35.318000
  0
LINE
  8
1
  6
*CONTINUOUS,SOLID
 10
287.414000
 20
35.878000
 11
287.414000
 21
35.299000
  0
LINE
  8
1
  6
*CONTINUOUS,SOLID
 10
289.214000
 20
36.578000
 11
289.214000
 21
35.299000
  0
TEXT
  8
1
  6
*CONTINUOUS,SOLID
 40
0.075000
 10
284.045000
 20
35.532000
  1
0.50
  7
ROMANC
  0
LINE
  8
1
  6
*CONTINUOUS,SOLID
 10
283.764000
 20
35.569000
 11
283.914000
 21
35.569000
  0
LINE
  8
1
  6
*CONTINUOUS,SOLID
 10
284.564000
 20
35.569000
 11
284.414000
 21
35.569000
  0
LINE
  8
1
  6
*CONTINUOUS,SOLID
 10
283.952000
 20
35.588000
 11
283.876000
 21
35.550000
  0
LINE
  8
1
  6
*CONTINUOUS,SOLID
 10
284.376000
 20
35.550000
 11
284.452000
 21
35.588000
  0
LINE
  8
1
  6
*CONTINUOUS,SOLID
 10
283.914000
 20
36.078000
 11
283.914000
 21
35.531000
  0
LINE
  8
1
  6
*CONTINUOUS,SOLID
 10
284.414000
 20
35.878000
 11
284.414000
 21
35.531000
  0
TEXT
  8
1
  6
*CONTINUOUS,SOLID
 40
0.075000
 10
286.442000
 20
37.666000
  1
4.30
  7
ROMANC
  0
LINE
  8
1
  6
*CONTINUOUS,SOLID
 10
286.404000
 20
37.704000
 11
284.414000
 21
37.704000
  0
LINE
  8
1
  6
*CONTINUOUS,SOLID
 10
286.723000
 20
37.704000
 11
288.714000
 21
37.704000
  0
LINE
  8
1
  6
*CONTINUOUS,SOLID
 10
284.376000
 20
37.685000
 11
284.452000
 21
37.723000
  0
LINE
  8
1
  6
*CONTINUOUS,SOLID
 10
288.752000
 20
37.723000
 11
288.676000
 21
37.685000
  0
LINE
  8
1
  6
*CONTINUOUS,SOLID
 10
284.414000
 20
37.092000
 11
284.414000
 21
37.742000
  0
LINE
  8
1
  6
*CONTINUOUS,SOLID
 10
288.714000
 20
37.092000
 11
288.714000
 21
37.742000
  0
LINE
  8
1
  6
*CONTINUOUS,SOLID
 10
288.714000
 20
37.054000
 11
289.214000
 21
36.854000
  0
TEXT
  8
1
  6
*CONTINUOUS,SOLID
 40
0.075000
 10
288.845000
 20
37.450000
  1
0.50
  7
ROMANC
  0
LINE
  8
1
  6
*CONTINUOUS,SOLID
 10
288.564000
 20
37.488000
 11
288.714000
 21
37.488000
  0
LINE
  8
1
  6
*CONTINUOUS,SOLID
 10
289.364000
 20
37.488000
 11
289.214000
 21
37.488000
  0
LINE
  8
1
  6
*CONTINUOUS,SOLID
 10
288.752000
 20
37.507000
 11
288.676000
 21
37.469000
  0
LINE
  8
1
  6
*CONTINUOUS,SOLID
 10
289.176000
 20
37.469000
 11
289.252000
 21
37.507000
  0
LINE
  8
1
  6
*CONTINUOUS,SOLID
 10
288.714000
 20
37.092000
 11
288.714000
 21
37.526000
  0
LINE
  8
1
  6
*CONTINUOUS,SOLID
 10
289.214000
 20
36.892000
 11
289.214000
 21
37.526000
  0
LINE
  8
1
  6
*CONTINUOUS,SOLID
 10
289.214000
 20
36.854000
 11
289.214000
 21
36.654000
  0
TEXT
  8
1
  6
*CONTINUOUS,SOLID
 40
0.075000
 10
290.010000
 20
37.305000
  1
0.20
 50
90.000000
  7
ROMANC
  0
LINE
  8
1
  6
*CONTINUOUS,SOLID
 10
289.973000
 20
37.191000
 11
289.973000
 21
37.054000
  0
LINE
  8
1
  6
*CONTINUOUS,SOLID
 10
289.973000
 20
36.704000
 11
289.973000
 21
36.854000
  0
LINE
  8
1
  6
*CONTINUOUS,SOLID
 10
289.992000
 20
37.016000
 11
289.954000
 21
37.092000
  0
LINE
  8
1
  6
*CONTINUOUS,SOLID
 10
289.954000
 20
36.892000
 11
289.992000
 21
36.816000
  0
LINE
  8
1
  6
*CONTINUOUS,SOLID
 10
288.752000
 20
37.054000
 11
290.011000
 21
37.054000
  0
LINE
  8
1
  6
*CONTINUOUS,SOLID
 10
289.252000
 20
36.854000
 11
290.011000
 21
36.854000
  0
TEXT
  8
1
  6
*CONTINUOUS,SOLID
 40
0.075000
 10
289.692000
 20
36.244000
  1
0.20
 50
90.000000
  7
ROMANC
  0
LINE
  8
1
  6
*CONTINUOUS,SOLID
 10
289.654000
 20
37.004000
 11
289.654000
 21
36.854000
  0
LINE
  8
1
  6
*CONTINUOUS,SOLID
 10
289.654000
 20
36.518000
 11
289.654000
 21
36.654000
  0
LINE
  8
1
  6
*CONTINUOUS,SOLID
 10
289.673000
 20
36.816000
 11
289.635000
 21
36.892000
  0
LINE
  8
1
  6
*CONTINUOUS,SOLID
 10
289.635000
 20
36.692000
 11
289.673000
 21
36.616000
  0
LINE
  8
1
  6
*CONTINUOUS,SOLID
 10
289.252000
 20
36.854000
 11
289.692000
 21
36.854000
  0
LINE
  8
1
  6
*CONTINUOUS,SOLID
 10
289.252000
 20
36.654000
 11
289.692000
 21
36.654000
  0
ENDSEC
  0
EOF
