  0
SECTION
  2
HEADER
  9
$ACADVER
  1
AC1009
  9
$INSBASE
 10
0.0
 20
0.0
 30
0.0
  9
$EXTMIN
 10
281.396
 20
29.897
 30
0.0
  9
$EXTMAX
 10
291.896
 20
44.747
 30
0.0
  9
$LIMMIN
 10
280.396
 20
28.897
  9
$LIMMAX
 10
292.896
 20
43.747
  9
$ORTHOMODE
 70
     0
  9
$REGENMODE
 70
     1
  9
$FILLMODE
 70
     1
  9
$QTEXTMODE
 70
     0
  9
$MIRRTEXT
 70
     1
  9
$DRAGMODE
 70
     2
  9
$LTSCALE
 40
1.0
  9
$OSMODE
 70
     0
  9
$ATTMODE
 70
     1
  9
$TEXTSIZE
 40
0.2
  9
$TRACEWID
 40
0.05
  9
$TEXTSTYLE
  7
STANDARD
  9
$CLAYER
  8
0
  9
$CELTYPE
  6
BYLAYER
  9
$CECOLOR
 62
   256
  9
$DIMSCALE
 40
1.0
  9
$DIMASZ
 40
0.18
  9
$DIMEXO
 40
0.0625
  9
$DIMDLI
 40
0.38
  9
$DIMRND
 40
0.0
  9
$DIMDLE
 40
0.0
  9
$DIMEXE
 40
0.18
  9
$DIMTP
 40
0.0
  9
$DIMTM
 40
0.0
  9
$DIMTXT
 40
0.18
  9
$DIMCEN
 40
0.09
  9
$DIMTSZ
 40
0.0
  9
$DIMTOL
 70
     0
  9
$DIMLIM
 70
     0
  9
$DIMTIH
 70
     1
  9
$DIMTOH
 70
     1
  9
$DIMSE1
 70
     0
  9
$DIMSE2
 70
     0
  9
$DIMTAD
 70
     0
  9
$DIMZIN
 70
     0
  9
$DIMBLK
  1

  9
$DIMASO
 70
     1
  9
$DIMSHO
 70
     1
  9
$DIMPOST
  1

  9
$DIMAPOST
  1

  9
$DIMALT
 70
     0
  9
$DIMALTD
 70
     2
  9
$DIMALTF
 40
25.4
  9
$DIMLFAC
 40
1.0
  9
$DIMTOFL
 70
     0
  9
$DIMTVP
 40
0.0
  9
$DIMTIX
 70
     0
  9
$DIMSOXD
 70
     0
  9
$DIMSAH
 70
     0
  9
$DIMBLK1
  1

  9
$DIMBLK2
  1

  9
$DIMSTYLE
  2
*UNNAMED
  9
$DIMCLRD
 70
     0
  9
$DIMCLRE
 70
     0
  9
$DIMCLRT
 70
     0
  9
$DIMTFAC
 40
1.0
  9
$DIMGAP
 40
0.09
  9
$LUNITS
 70
     2
  9
$LUPREC
 70
     4
  9
$SKETCHINC
 40
0.1
  9
$FILLETRAD
 40
0.0
  9
$AUNITS
 70
     0
  9
$AUPREC
 70
     0
  9
$MENU
  1
acad
  9
$ELEVATION
 40
0.0
  9
$PELEVATION
 40
0.0
  9
$THICKNESS
 40
0.0
  9
$LIMCHECK
 70
     0
  9
$BLIPMODE
 70
     1
  9
$CHAMFERA
 40
0.0
  9
$CHAMFERB
 40
0.0
  9
$SKPOLY
 70
     0
  9
$TDCREATE
 40
2448315.373408102
  9
$TDUPDATE
 40
2448315.373408102
  9
$TDINDWG
 40
0.0000000000
  9
$TDUSRTIMER
 40
0.0000000000
  9
$USRTIMER
 70
     1
  9
$ANGBASE
 50
0.0
  9
$ANGDIR
 70
     0
  9
$PDMODE
 70
     0
  9
$PDSIZE
 40
0.0
  9
$PLINEWID
 40
0.0
  9
$COORDS
 70
     0
  9
$SPLFRAME
 70
     0
  9
$SPLINETYPE
 70
     6
  9
$SPLINESEGS
 70
     8
  9
$ATTDIA
 70
     0
  9
$ATTREQ
 70
     1
  9
$HANDLING
 70
     0
  9
$HANDSEED
  5
0
  9
$SURFTAB1
 70
     6
  9
$SURFTAB2
 70
     6
  9
$SURFTYPE
 70
     6
  9
$SURFU
 70
     6
  9
$SURFV
 70
     6
  9
$UCSNAME
  2

  9
$UCSORG
 10
0.0
 20
0.0
 30
0.0
  9
$UCSXDIR
 10
1.0
 20
0.0
 30
0.0
  9
$UCSYDIR
 10
0.0
 20
1.0
 30
0.0
  9
$PUCSNAME
  2

  9
$PUCSORG
 10
0.0
 20
0.0
 30
0.0
  9
$PUCSXDIR
 10
1.0
 20
0.0
 30
0.0
  9
$PUCSYDIR
 10
0.0
 20
1.0
 30
0.0
  9
$USERI1
 70
     0
  9
$USERI2
 70
     0
  9
$USERI3
 70
     0
  9
$USERI4
 70
     0
  9
$USERI5
 70
     0
  9
$USERR1
 40
0.0
  9
$USERR2
 40
0.0
  9
$USERR3
 40
0.0
  9
$USERR4
 40
0.0
  9
$USERR5
 40
0.0
  9
$WORLDVIEW
 70
     1
  9
$SHADEDGE
 70
     3
  9
$SHADEDIF
 70
    70
  9
$TILEMODE
 70
     1
  9
$MAXACTVP
 70
    16
  9
$PINSBASE
 10
0.0
 20
0.0
 30
0.0
  9
$PLIMCHECK
 70
     0
  9
$PEXTMIN
 10
1.000000E+20
 20
1.000000E+20
 30
1.000000E+20
  9
$PEXTMAX
 10
-1.000000E+20
 20
-1.000000E+20
 30
-1.000000E+20
  9
$PLIMMIN
 10
0.0
 20
0.0
  9
$PLIMMAX
 10
12.0
 20
9.0
  9
$UNITMODE
 70
     0
  9
$VISRETAIN
 70
     0
  9
$PLINEGEN
 70
     0
  9
$PSLTSCALE
 70
     0
  9
$TREEDEPTH
 70
  3020
  9
$DWGCODEPAGE
  3
iso8859-1
  0
ENDSEC
  0
SECTION
  2
TABLES
  0
TABLE
  2
VPORT
 70
     2
  0
VPORT
  2
*ACTIVE
 70
     0
 10
0.0
 20
0.0
 11
1.0
 21
1.0
 12
293.163362
 22
36.822
 13
0.0
 23
0.0
 14
1.0
 24
1.0
 15
10.0
 25
10.0
 16
0.0
 26
0.0
 36
1.0
 17
0.0
 27
0.0
 37
0.0
 40
15.85
 41
1.611024
 42
50.0
 43
0.0
 44
0.0
 50
0.0
 51
0.0
 71
     0
 72
   100
 73
     1
 74
     0
 75
     0
 76
     0
 77
     0
 78
     0
  0
ENDTAB
  0
TABLE
  2
LTYPE
 70
     1
  0
LTYPE
  2
CONTINUOUS
 70
    64
  3
Solid line
 72
    65
 73
     0
 40
0.0
  0
ENDTAB
  0
TABLE
  2
LAYER
 70
     7
  0
LAYER
  2
0
 70
    64
 62
     7
  6
CONTINUOUS
  0
LAYER
  2
1
 70
    64
 62
     7
  6
CONTINUOUS
  0
LAYER
  2
7
 70
    64
 62
     7
  6
CONTINUOUS
  0
LAYER
  2
8
 70
    64
 62
     7
  6
CONTINUOUS
  0
LAYER
  2
9
 70
    64
 62
     7
  6
CONTINUOUS
  0
LAYER
  2
22
 70
    64
 62
     7
  6
CONTINUOUS
  0
LAYER
  2
25
 70
    64
 62
     7
  6
CONTINUOUS
  0
ENDTAB
  0
TABLE
  2
STYLE
 70
     2
  0
STYLE
  2
STANDARD
 70
     0
 40
0.0
 41
1.0
 50
0.0
 71
     0
 42
3.5
  3
txt
  4

  0
STYLE
  2
ROMANC
 70
     0
 40
0.0
 41
1.0
 50
0.0
 71
     0
 42
0.2
  3
ROMANC
  4

  0
ENDTAB
  0
TABLE
  2
VIEW
 70
     0
  0
ENDTAB
  0
TABLE
  2
UCS
 70
     0
  0
ENDTAB
  0
TABLE
  2
APPID
 70
     1
  0
APPID
  2
ACAD
 70
    64
  0
ENDTAB
  0
TABLE
  2
DIMSTYLE
 70
     0
  0
ENDTAB
  0
ENDSEC
  0
SECTION
  2
BLOCKS
  0
ENDSEC
  0
SECTION
  2
ENTITIES
  0
TEXT
  8
0
  6
CONTINUOUS
 10
286.909
 20
41.324
 30
0.0
 40
0.1
  1
2
  7
ROMANC
  0
TEXT
  8
0
  6
CONTINUOUS
 10
283.926
 20
41.768
 30
0.0
 40
0.3
  1
ESCALA  1:50
  7
ROMANC
  0
POLYLINE
  8
0
  6
CONTINUOUS
 66
     1
 10
0.0
 20
0.0
 30
0.0
 70
     1
  0
VERTEX
  8
0
  6
CONTINUOUS
 10
281.396
 20
44.747
 30
0.0
  0
VERTEX
  8
0
  6
CONTINUOUS
 10
291.896
 20
44.747
 30
0.0
  0
VERTEX
  8
0
  6
CONTINUOUS
 10
291.896
 20
29.897
 30
0.0
  0
VERTEX
  8
0
  6
CONTINUOUS
 10
281.396
 20
29.897
 30
0.0
  0
SEQEND
  8
0
  0
POLYLINE
  8
1
  6
CONTINUOUS
 66
     1
 10
0.0
 20
0.0
 30
0.0
  0
VERTEX
  8
1
  6
CONTINUOUS
 10
287.21
 20
36.008
 30
0.0
 42
0.084766
  0
VERTEX
  8
1
  6
CONTINUOUS
 10
287.202631
 20
36.048645
 30
0.0
 42
0.06609
  0
VERTEX
  8
1
  6
CONTINUOUS
 10
287.183593
 20
36.085646
 30
0.0
 42
0.056661
  0
VERTEX
  8
1
  6
CONTINUOUS
 10
287.148344
 20
36.125338
 30
0.0
 42
0.036916
  0
VERTEX
  8
1
  6
CONTINUOUS
 10
287.10617
 20
36.158
 30
0.0
 42
0.032432
  0
VERTEX
  8
1
  6
CONTINUOUS
 10
287.046347
 20
36.192444
 30
0.0
 42
0.02287
  0
VERTEX
  8
1
  6
CONTINUOUS
 10
286.983008
 20
36.220132
 30
0.0
 42
0.020881
  0
VERTEX
  8
1
  6
CONTINUOUS
 10
286.903661
 20
36.24696
 30
0.0
 42
0.016476
  0
VERTEX
  8
1
  6
CONTINUOUS
 10
286.8225
 20
36.267808
 30
0.0
 42
0.015549
  0
VERTEX
  8
1
  6
CONTINUOUS
 10
286.729486
 20
36.285513
 30
0.0
 42
0.013579
  0
VERTEX
  8
1
  6
CONTINUOUS
 10
286.635585
 20
36.297778
 30
0.0
 42
0.013202
  0
VERTEX
  8
1
  6
CONTINUOUS
 10
286.535426
 20
36.305479
 30
0.0
 42
0.012633
  0
VERTEX
  8
1
  6
CONTINUOUS
 10
286.435
 20
36.308
 30
0.0
 42
0.012633
  0
VERTEX
  8
1
  6
CONTINUOUS
 10
286.334574
 20
36.305479
 30
0.0
 42
0.013202
  0
VERTEX
  8
1
  6
CONTINUOUS
 10
286.234415
 20
36.297778
 30
0.0
 42
0.013579
  0
VERTEX
  8
1
  6
CONTINUOUS
 10
286.140514
 20
36.285513
 30
0.0
 42
0.015549
  0
VERTEX
  8
1
  6
CONTINUOUS
 10
286.0475
 20
36.267808
 30
0.0
 42
0.016476
  0
VERTEX
  8
1
  6
CONTINUOUS
 10
285.966339
 20
36.24696
 30
0.0
 42
0.020881
  0
VERTEX
  8
1
  6
CONTINUOUS
 10
285.886992
 20
36.220132
 30
0.0
 42
0.02287
  0
VERTEX
  8
1
  6
CONTINUOUS
 10
285.823653
 20
36.192444
 30
0.0
 42
0.032432
  0
VERTEX
  8
1
  6
CONTINUOUS
 10
285.76383
 20
36.158
 30
0.0
 42
0.036916
  0
VERTEX
  8
1
  6
CONTINUOUS
 10
285.721656
 20
36.125338
 30
0.0
 42
0.056661
  0
VERTEX
  8
1
  6
CONTINUOUS
 10
285.686407
 20
36.085646
 30
0.0
 42
0.06609
  0
VERTEX
  8
1
  6
CONTINUOUS
 10
285.667369
 20
36.048645
 30
0.0
 42
0.084766
  0
VERTEX
  8
1
  6
CONTINUOUS
 10
285.66
 20
36.008
 30
0.0
  0
SEQEND
  8
0
  0
TEXT
  8
0
  6
CONTINUOUS
 10
283.922
 20
40.529
 30
0.0
 40
0.3
  1
P = 94 dm
  7
ROMANC
  0
TEXT
  8
0
  6
CONTINUOUS
 10
283.945
 20
41.099
 30
0.0
 40
0.3
  1
S = 505 dm
  7
ROMANC
  0
TEXT
  8
0
  6
CONTINUOUS
 10
283.926
 20
42.381
 30
0.0
 40
0.3
  1
TIPUS   NT505A
  7
ROMANC
  0
LINE
  8
1
  6
CONTINUOUS
 10
285.66
 20
32.988
 30
0.0
 11
285.66
 21
36.008
 31
0.0
  0
LINE
  8
1
  6
CONTINUOUS
 10
287.21
 20
32.988
 30
0.0
 11
285.66
 21
32.988
 31
0.0
  0
TEXT
  8
1
  6
CONTINUOUS
 10
286.325
 20
32.698
 30
0.0
 40
0.075
  1
1.55
  7
ROMANC
  0
LINE
  8
1
  6
CONTINUOUS
 10
286.287
 20
32.736
 30
0.0
 11
285.66
 21
32.736
 31
0.0
  0
LINE
  8
1
  6
CONTINUOUS
 10
286.582
 20
32.736
 30
0.0
 11
287.21
 21
32.736
 31
0.0
  0
LINE
  8
1
  6
CONTINUOUS
 10
285.622
 20
32.717
 30
0.0
 11
285.698
 21
32.755
 31
0.0
  0
LINE
  8
1
  6
CONTINUOUS
 10
287.248
 20
32.755
 30
0.0
 11
287.172
 21
32.717
 31
0.0
  0
LINE
  8
1
  6
CONTINUOUS
 10
285.66
 20
32.95
 30
0.0
 11
285.66
 21
32.698
 31
0.0
  0
LINE
  8
1
  6
CONTINUOUS
 10
287.21
 20
32.95
 30
0.0
 11
287.21
 21
32.698
 31
0.0
  0
LINE
  8
1
  6
CONTINUOUS
 10
287.21
 20
36.008
 30
0.0
 11
287.21
 21
32.988
 31
0.0
  0
TEXT
  8
1
  6
CONTINUOUS
 10
287.548
 20
34.379
 30
0.0
 40
0.075
  1
3.02
 50
90.0
  7
ROMANC
  0
LINE
  8
1
  6
CONTINUOUS
 10
287.511
 20
34.341
 30
0.0
 11
287.511
 21
32.988
 31
0.0
  0
LINE
  8
1
  6
CONTINUOUS
 10
287.511
 20
34.653
 30
0.0
 11
287.511
 21
36.008
 31
0.0
  0
LINE
  8
1
  6
CONTINUOUS
 10
287.53
 20
32.95
 30
0.0
 11
287.492
 21
33.026
 31
0.0
  0
LINE
  8
1
  6
CONTINUOUS
 10
287.492
 20
36.046
 30
0.0
 11
287.53
 21
35.97
 31
0.0
  0
LINE
  8
1
  6
CONTINUOUS
 10
287.248
 20
32.988
 30
0.0
 11
287.549
 21
32.988
 31
0.0
  0
LINE
  8
1
  6
CONTINUOUS
 10
287.248
 20
36.008
 30
0.0
 11
287.549
 21
36.008
 31
0.0
  0
TEXT
  8
1
  6
CONTINUOUS
 10
287.912
 20
34.529
 30
0.0
 40
0.075
  1
3.32
 50
90.0
  7
ROMANC
  0
LINE
  8
1
  6
CONTINUOUS
 10
287.874
 20
34.491
 30
0.0
 11
287.874
 21
32.988
 31
0.0
  0
LINE
  8
1
  6
CONTINUOUS
 10
287.874
 20
34.803
 30
0.0
 11
287.874
 21
36.308
 31
0.0
  0
LINE
  8
1
  6
CONTINUOUS
 10
287.893
 20
32.95
 30
0.0
 11
287.855
 21
33.026
 31
0.0
  0
LINE
  8
1
  6
CONTINUOUS
 10
287.855
 20
36.346
 30
0.0
 11
287.893
 21
36.27
 31
0.0
  0
LINE
  8
1
  6
CONTINUOUS
 10
287.248
 20
32.988
 30
0.0
 11
287.912
 21
32.988
 31
0.0
  0
LINE
  8
1
  6
CONTINUOUS
 10
286.473
 20
36.308
 30
0.0
 11
287.912
 21
36.308
 31
0.0
  0
POLYLINE
  8
1
  6
CONTINUOUS
 66
     1
 10
0.0
 20
0.0
 30
0.0
  0
VERTEX
  8
1
  6
CONTINUOUS
 10
287.22
 20
36.008
 30
0.0
 42
0.083099
  0
VERTEX
  8
1
  6
CONTINUOUS
 10
287.212562
 20
36.049941
 30
0.0
 42
0.065448
  0
VERTEX
  8
1
  6
CONTINUOUS
 10
287.193252
 20
36.088234
 30
0.0
 42
0.056412
  0
VERTEX
  8
1
  6
CONTINUOUS
 10
287.157615
 20
36.129178
 30
0.0
 42
0.037172
  0
VERTEX
  8
1
  6
CONTINUOUS
 10
287.11483
 20
36.163
 30
0.0
 42
0.032723
  0
VERTEX
  8
1
  6
CONTINUOUS
 10
287.054291
 20
36.198561
 30
0.0
 42
0.023203
  0
VERTEX
  8
1
  6
CONTINUOUS
 10
286.990079
 20
36.227203
 30
0.0
 42
0.021204
  0
VERTEX
  8
1
  6
CONTINUOUS
 10
286.909742
 20
36.254915
 30
0.0
 42
0.016773
  0
VERTEX
  8
1
  6
CONTINUOUS
 10
286.8275
 20
36.276468
 30
0.0
 42
0.015836
  0
VERTEX
  8
1
  6
CONTINUOUS
 10
286.733303
 20
36.29476
 30
0.0
 42
0.013845
  0
VERTEX
  8
1
  6
CONTINUOUS
 10
286.638173
 20
36.307437
 30
0.0
 42
0.013464
  0
VERTEX
  8
1
  6
CONTINUOUS
 10
286.536728
 20
36.315395
 30
0.0
 42
0.012888
  0
VERTEX
  8
1
  6
CONTINUOUS
 10
286.435
 20
36.318
 30
0.0
 42
0.012888
  0
VERTEX
  8
1
  6
CONTINUOUS
 10
286.333272
 20
36.315395
 30
0.0
 42
0.013464
  0
VERTEX
  8
1
  6
CONTINUOUS
 10
286.231827
 20
36.307437
 30
0.0
 42
0.013845
  0
VERTEX
  8
1
  6
CONTINUOUS
 10
286.136697
 20
36.29476
 30
0.0
 42
0.015836
  0
VERTEX
  8
1
  6
CONTINUOUS
 10
286.0425
 20
36.276468
 30
0.0
 42
0.016773
  0
VERTEX
  8
1
  6
CONTINUOUS
 10
285.960258
 20
36.254915
 30
0.0
 42
0.021204
  0
VERTEX
  8
1
  6
CONTINUOUS
 10
285.879921
 20
36.227203
 30
0.0
 42
0.023203
  0
VERTEX
  8
1
  6
CONTINUOUS
 10
285.815709
 20
36.198561
 30
0.0
 42
0.032723
  0
VERTEX
  8
1
  6
CONTINUOUS
 10
285.75517
 20
36.163
 30
0.0
 42
0.037172
  0
VERTEX
  8
1
  6
CONTINUOUS
 10
285.712385
 20
36.129178
 30
0.0
 42
0.056412
  0
VERTEX
  8
1
  6
CONTINUOUS
 10
285.676748
 20
36.088234
 30
0.0
 42
0.065448
  0
VERTEX
  8
1
  6
CONTINUOUS
 10
285.657438
 20
36.049941
 30
0.0
 42
0.083099
  0
VERTEX
  8
1
  6
CONTINUOUS
 10
285.65
 20
36.008
 30
0.0
  0
SEQEND
  8
0
  0
POLYLINE
  8
1
  6
CONTINUOUS
 66
     1
 10
0.0
 20
0.0
 30
0.0
  0
VERTEX
  8
1
  6
CONTINUOUS
 10
287.23
 20
36.008
 30
0.0
 42
0.081534
  0
VERTEX
  8
1
  6
CONTINUOUS
 10
287.222491
 20
36.051236
 30
0.0
 42
0.064822
  0
VERTEX
  8
1
  6
CONTINUOUS
 10
287.202911
 20
36.090822
 30
0.0
 42
0.056155
  0
VERTEX
  8
1
  6
CONTINUOUS
 10
287.166885
 20
36.133017
 30
0.0
 42
0.037406
  0
VERTEX
  8
1
  6
CONTINUOUS
 10
287.12349
 20
36.168
 30
0.0
 42
0.032993
  0
VERTEX
  8
1
  6
CONTINUOUS
 10
287.062234
 20
36.204677
 30
0.0
 42
0.023522
  0
VERTEX
  8
1
  6
CONTINUOUS
 10
286.99715
 20
36.234274
 30
0.0
 42
0.021514
  0
VERTEX
  8
1
  6
CONTINUOUS
 10
286.915824
 20
36.262868
 30
0.0
 42
0.017061
  0
VERTEX
  8
1
  6
CONTINUOUS
 10
286.8325
 20
36.285128
 30
0.0
 42
0.016116
  0
VERTEX
  8
1
  6
CONTINUOUS
 10
286.737121
 20
36.304007
 30
0.0
 42
0.014105
  0
VERTEX
  8
1
  6
CONTINUOUS
 10
286.640761
 20
36.317096
 30
0.0
 42
0.013719
  0
VERTEX
  8
1
  6
CONTINUOUS
 10
286.538029
 20
36.32531
 30
0.0
 42
0.013137
  0
VERTEX
  8
1
  6
CONTINUOUS
 10
286.435
 20
36.328
 30
0.0
 42
0.013137
  0
VERTEX
  8
1
  6
CONTINUOUS
 10
286.331971
 20
36.32531
 30
0.0
 42
0.013719
  0
VERTEX
  8
1
  6
CONTINUOUS
 10
286.229239
 20
36.317096
 30
0.0
 42
0.014105
  0
VERTEX
  8
1
  6
CONTINUOUS
 10
286.132879
 20
36.304007
 30
0.0
 42
0.016116
  0
VERTEX
  8
1
  6
CONTINUOUS
 10
286.0375
 20
36.285128
 30
0.0
 42
0.017061
  0
VERTEX
  8
1
  6
CONTINUOUS
 10
285.954176
 20
36.262868
 30
0.0
 42
0.021514
  0
VERTEX
  8
1
  6
CONTINUOUS
 10
285.87285
 20
36.234274
 30
0.0
 42
0.023522
  0
VERTEX
  8
1
  6
CONTINUOUS
 10
285.807766
 20
36.204677
 30
0.0
 42
0.032993
  0
VERTEX
  8
1
  6
CONTINUOUS
 10
285.74651
 20
36.168
 30
0.0
 42
0.037406
  0
VERTEX
  8
1
  6
CONTINUOUS
 10
285.703115
 20
36.133017
 30
0.0
 42
0.056155
  0
VERTEX
  8
1
  6
CONTINUOUS
 10
285.667089
 20
36.090822
 30
0.0
 42
0.064822
  0
VERTEX
  8
1
  6
CONTINUOUS
 10
285.647509
 20
36.051236
 30
0.0
 42
0.081534
  0
VERTEX
  8
1
  6
CONTINUOUS
 10
285.64
 20
36.008
 30
0.0
  0
SEQEND
  8
0
  0
LINE
  8
1
  6
CONTINUOUS
 10
285.65
 20
32.978
 30
0.0
 11
285.65
 21
36.008
 31
0.0
  0
LINE
  8
1
  6
CONTINUOUS
 10
285.64
 20
32.968
 30
0.0
 11
285.64
 21
36.008
 31
0.0
  0
LINE
  8
1
  6
CONTINUOUS
 10
287.22
 20
36.008
 30
0.0
 11
287.22
 21
32.978
 31
0.0
  0
LINE
  8
1
  6
CONTINUOUS
 10
287.23
 20
36.008
 30
0.0
 11
287.23
 21
32.968
 31
0.0
  0
LINE
  8
1
  6
CONTINUOUS
 10
287.22
 20
32.978
 30
0.0
 11
285.65
 21
32.978
 31
0.0
  0
LINE
  8
1
  6
CONTINUOUS
 10
287.23
 20
32.968
 30
0.0
 11
285.64
 21
32.968
 31
0.0
  0
LINE
  8
1
  6
CONTINUOUS
 10
287.511
 20
36.308
 30
0.0
 11
287.511
 21
36.56585
 31
0.0
  0
LINE
  8
1
  6
CONTINUOUS
 10
287.492
 20
36.346
 30
0.0
 11
287.53
 21
36.27
 31
0.0
  0
TEXT
  8
1
  6
CONTINUOUS
 10
287.548
 20
36.661658
 30
0.0
 40
0.075
  1
0.30
 50
90.0
  7
ROMANC
  0
ENDSEC
  0
EOF
