  0
SECTION
  2
HEADER
  9
$ACADVER
  1
AC1009
  9
$INSBASE
 10
105.464027
 20
-4.528761
 30
0.0
  9
$EXTMIN
 10
281.395795
 20
29.897444
 30
0.0
  9
$EXTMAX
 10
291.895795
 20
44.747444
 30
0.0
  9
$LIMMIN
 10
0.0
 20
0.0
  9
$LIMMAX
 10
410.0
 20
287.0
  9
$ORTHOMODE
 70
     0
  9
$REGENMODE
 70
     1
  9
$FILLMODE
 70
     1
  9
$QTEXTMODE
 70
     0
  9
$MIRRTEXT
 70
     1
  9
$DRAGMODE
 70
     2
  9
$LTSCALE
 40
25.0
  9
$OSMODE
 70
    32
  9
$ATTMODE
 70
     1
  9
$TEXTSIZE
 40
0.1
  9
$TRACEWID
 40
1.0
  9
$TEXTSTYLE
  7
ROMANC
  9
$CLAYER
  8
0
  9
$CELTYPE
  6
BYLAYER
  9
$CECOLOR
 62
   256
  9
$DIMSCALE
 40
1.5
  9
$DIMASZ
 40
0.1
  9
$DIMEXO
 40
0.01
  9
$DIMDLI
 40
7.0
  9
$DIMRND
 40
0.0
  9
$DIMDLE
 40
0.0
  9
$DIMEXE
 40
0.01
  9
$DIMTP
 40
0.0
  9
$DIMTM
 40
0.0
  9
$DIMTXT
 40
0.05
  9
$DIMCEN
 40
0.1
  9
$DIMTSZ
 40
0.0
  9
$DIMTOL
 70
     0
  9
$DIMLIM
 70
     0
  9
$DIMTIH
 70
     0
  9
$DIMTOH
 70
     0
  9
$DIMSE1
 70
     0
  9
$DIMSE2
 70
     0
  9
$DIMTAD
 70
     1
  9
$DIMZIN
 70
     0
  9
$DIMBLK
  1

  9
$DIMASO
 70
     1
  9
$DIMSHO
 70
     0
  9
$DIMPOST
  1

  9
$DIMAPOST
  1

  9
$DIMALT
 70
     0
  9
$DIMALTD
 70
     2
  9
$DIMALTF
 40
25.4
  9
$DIMLFAC
 40
1.0
  9
$DIMTOFL
 70
     1
  9
$DIMTVP
 40
0.0
  9
$DIMTIX
 70
     1
  9
$DIMSOXD
 70
     0
  9
$DIMSAH
 70
     0
  9
$DIMBLK1
  1

  9
$DIMBLK2
  1

  9
$DIMSTYLE
  2
*UNNAMED
  9
$DIMCLRD
 70
     0
  9
$DIMCLRE
 70
     0
  9
$DIMCLRT
 70
     0
  9
$DIMTFAC
 40
70.0
  9
$DIMGAP
 40
0.09
  9
$LUNITS
 70
     2
  9
$LUPREC
 70
     2
  9
$SKETCHINC
 40
1.0
  9
$FILLETRAD
 40
0.0
  9
$AUNITS
 70
     0
  9
$AUPREC
 70
     0
  9
$MENU
  1
acad
  9
$ELEVATION
 40
0.0
  9
$PELEVATION
 40
0.0
  9
$THICKNESS
 40
0.0
  9
$LIMCHECK
 70
     0
  9
$BLIPMODE
 70
     0
  9
$CHAMFERA
 40
0.0
  9
$CHAMFERB
 40
0.0
  9
$SKPOLY
 70
     0
  9
$TDCREATE
 40
2450305.554557986
  9
$TDUPDATE
 40
2450910.486935416
  9
$TDINDWG
 40
0.0870442130
  9
$TDUSRTIMER
 40
0.0870442130
  9
$USRTIMER
 70
     1
  9
$ANGBASE
 50
0.0
  9
$ANGDIR
 70
     0
  9
$PDMODE
 70
     0
  9
$PDSIZE
 40
0.0
  9
$PLINEWID
 40
0.0
  9
$COORDS
 70
     2
  9
$SPLFRAME
 70
     0
  9
$SPLINETYPE
 70
     6
  9
$SPLINESEGS
 70
     8
  9
$ATTDIA
 70
     0
  9
$ATTREQ
 70
     1
  9
$HANDLING
 70
     0
  9
$HANDSEED
  5
0
  9
$SURFTAB1
 70
     6
  9
$SURFTAB2
 70
     6
  9
$SURFTYPE
 70
     6
  9
$SURFU
 70
     6
  9
$SURFV
 70
     6
  9
$UCSNAME
  2

  9
$UCSORG
 10
0.0
 20
0.0
 30
0.0
  9
$UCSXDIR
 10
1.0
 20
0.0
 30
0.0
  9
$UCSYDIR
 10
0.0
 20
1.0
 30
0.0
  9
$PUCSNAME
  2

  9
$PUCSORG
 10
0.0
 20
0.0
 30
0.0
  9
$PUCSXDIR
 10
1.0
 20
0.0
 30
0.0
  9
$PUCSYDIR
 10
0.0
 20
1.0
 30
0.0
  9
$USERI1
 70
     0
  9
$USERI2
 70
     0
  9
$USERI3
 70
     0
  9
$USERI4
 70
     0
  9
$USERI5
 70
     0
  9
$USERR1
 40
0.0
  9
$USERR2
 40
0.0
  9
$USERR3
 40
0.0
  9
$USERR4
 40
0.0
  9
$USERR5
 40
0.0
  9
$WORLDVIEW
 70
     1
  9
$SHADEDGE
 70
     3
  9
$SHADEDIF
 70
    70
  9
$TILEMODE
 70
     1
  9
$MAXACTVP
 70
    16
  9
$PINSBASE
 10
0.0
 20
0.0
 30
0.0
  9
$PLIMCHECK
 70
     0
  9
$PEXTMIN
 10
1.000000E+20
 20
1.000000E+20
 30
1.000000E+20
  9
$PEXTMAX
 10
-1.000000E+20
 20
-1.000000E+20
 30
-1.000000E+20
  9
$PLIMMIN
 10
0.0
 20
0.0
  9
$PLIMMAX
 10
12.0
 20
9.0
  9
$UNITMODE
 70
     0
  9
$VISRETAIN
 70
     0
  9
$PLINEGEN
 70
     0
  9
$PSLTSCALE
 70
     0
  9
$TREEDEPTH
 70
  3020
  9
$DWGCODEPAGE
  3
iso8859-1
  0
ENDSEC
  0
SECTION
  2
TABLES
  0
TABLE
  2
VPORT
 70
     2
  0
VPORT
  2
*ACTIVE
 70
     0
 10
0.0
 20
0.0
 11
1.0
 21
1.0
 12
292.715233
 22
37.322444
 13
0.0
 23
0.0
 14
1.0
 24
1.0
 15
10.0
 25
10.0
 16
0.0
 26
0.0
 36
1.0
 17
0.0
 27
0.0
 37
0.0
 40
14.85
 41
1.524503
 42
50.0
 43
0.0
 44
0.0
 50
0.0
 51
0.0
 71
     0
 72
   100
 73
     1
 74
     0
 75
     0
 76
     0
 77
     0
 78
     1
  0
ENDTAB
  0
TABLE
  2
LTYPE
 70
     1
  0
LTYPE
  2
CONTINUOUS
 70
    64
  3
Solid line
 72
    65
 73
     0
 40
0.0
  0
ENDTAB
  0
TABLE
  2
LAYER
 70
     3
  0
LAYER
  2
0
 70
    64
 62
     7
  6
CONTINUOUS
  0
LAYER
  2
MESURA
 70
     0
 62
     7
  6
CONTINUOUS
  0
LAYER
  2
DEFPOINTS
 70
    64
 62
     7
  6
CONTINUOUS
  0
ENDTAB
  0
TABLE
  2
STYLE
 70
     2
  0
STYLE
  2
STANDARD
 70
     0
 40
0.0
 41
1.0
 50
0.0
 71
     0
 42
0.1
  3
txt
  4

  0
STYLE
  2
ROMANC
 70
    64
 40
0.0
 41
1.0
 50
0.0
 71
     0
 42
0.1
  3
romanc
  4

  0
ENDTAB
  0
TABLE
  2
VIEW
 70
     0
  0
ENDTAB
  0
TABLE
  2
UCS
 70
     0
  0
ENDTAB
  0
TABLE
  2
APPID
 70
     1
  0
APPID
  2
ACAD
 70
    64
  0
ENDTAB
  0
TABLE
  2
DIMSTYLE
 70
     1
  0
DIMSTYLE
  2
SILVIA
 70
     0
  3

  4

  5

  6

  7

 40
1.5
 41
0.1
 42
0.01
 43
7.0
 44
0.01
 45
0.0
 46
0.0
 47
0.0
 48
0.0
140
0.05
141
0.1
142
0.0
143
25.4
144
1.0
145
0.0
146
70.0
147
0.09
 71
     0
 72
     0
 73
     0
 74
     0
 75
     0
 76
     0
 77
     1
 78
     0
170
     0
171
     2
172
     1
173
     0
174
     1
175
     0
176
     0
177
     0
178
     0
  0
ENDTAB
  0
ENDSEC
  0
SECTION
  2
BLOCKS
  0
BLOCK
  8
0
  2
*D1
 70
    65
 10
0.0
 20
0.0
 30
0.0
  3
*D
  0
LINE
  8
0
  6
BYBLOCK
 62
     0
 10
286.110738
 20
34.12426
 30
0.0
 11
286.110738
 21
33.697503
 31
0.0
  0
LINE
  8
0
  6
BYBLOCK
 62
     0
 10
287.310738
 20
34.12426
 30
0.0
 11
287.310738
 21
33.697503
 31
0.0
  0
LINE
  8
0
  6
BYBLOCK
 62
     0
 10
286.260738
 20
33.712503
 30
0.0
 11
287.160738
 21
33.712503
 31
0.0
  0
SOLID
  8
0
  6
BYBLOCK
 62
     0
 10
286.260738
 20
33.737503
 30
0.0
 11
286.260738
 21
33.687503
 31
0.0
 12
286.110738
 22
33.712503
 32
0.0
 13
286.110738
 23
33.712503
 33
0.0
  0
SOLID
  8
0
  6
BYBLOCK
 62
     0
 10
287.160738
 20
33.737503
 30
0.0
 11
287.160738
 21
33.687503
 31
0.0
 12
287.310738
 22
33.712503
 32
0.0
 13
287.310738
 23
33.712503
 33
0.0
  0
TEXT
  8
0
  6
BYBLOCK
 62
     0
 10
286.580381
 20
33.750003
 30
0.0
 40
0.075
  1
1.20
  7
ROMANC
 72
     1
 11
286.710738
 21
33.787503
 31
0.0
 73
     2
  0
POINT
  8
DEFPOINTS
  6
BYBLOCK
 62
     0
 10
286.110738
 20
34.13926
 30
0.0
  0
POINT
  8
DEFPOINTS
  6
BYBLOCK
 62
     0
 10
287.310738
 20
34.13926
 30
0.0
  0
POINT
  8
DEFPOINTS
  6
BYBLOCK
 62
     0
 10
287.310738
 20
33.712503
 30
0.0
  0
ENDBLK
  8
0
  0
BLOCK
  8
0
  2
*D2
 70
    65
 10
0.0
 20
0.0
 30
0.0
  3
*D
  0
LINE
  8
0
  6
BYBLOCK
 62
     0
 10
285.010738
 20
34.52426
 30
0.0
 11
285.010738
 21
33.697503
 31
0.0
  0
LINE
  8
0
  6
BYBLOCK
 62
     0
 10
286.110738
 20
34.12426
 30
0.0
 11
286.110738
 21
33.697503
 31
0.0
  0
LINE
  8
0
  6
BYBLOCK
 62
     0
 10
285.160738
 20
33.712503
 30
0.0
 11
285.960738
 21
33.712503
 31
0.0
  0
SOLID
  8
0
  6
BYBLOCK
 62
     0
 10
285.160738
 20
33.737503
 30
0.0
 11
285.160738
 21
33.687503
 31
0.0
 12
285.010738
 22
33.712503
 32
0.0
 13
285.010738
 23
33.712503
 33
0.0
  0
SOLID
  8
0
  6
BYBLOCK
 62
     0
 10
285.960738
 20
33.737503
 30
0.0
 11
285.960738
 21
33.687503
 31
0.0
 12
286.110738
 22
33.712503
 32
0.0
 13
286.110738
 23
33.712503
 33
0.0
  0
TEXT
  8
0
  6
BYBLOCK
 62
     0
 10
285.430381
 20
33.750003
 30
0.0
 40
0.075
  1
1.10
  7
ROMANC
 72
     1
 11
285.560738
 21
33.787503
 31
0.0
 73
     2
  0
POINT
  8
DEFPOINTS
  6
BYBLOCK
 62
     0
 10
285.010738
 20
34.53926
 30
0.0
  0
POINT
  8
DEFPOINTS
  6
BYBLOCK
 62
     0
 10
286.110738
 20
34.13926
 30
0.0
  0
POINT
  8
DEFPOINTS
  6
BYBLOCK
 62
     0
 10
286.110738
 20
33.712503
 30
0.0
  0
ENDBLK
  8
0
  0
BLOCK
  8
0
  2
*D4
 70
    65
 10
0.0
 20
0.0
 30
0.0
  3
*D
  0
LINE
  8
0
  6
BYBLOCK
 62
     0
 10
284.995738
 20
34.53926
 30
0.0
 11
284.582265
 21
34.53926
 31
0.0
  0
LINE
  8
0
  6
BYBLOCK
 62
     0
 10
286.095738
 20
34.13926
 30
0.0
 11
284.582265
 21
34.13926
 31
0.0
  0
LINE
  8
0
  6
BYBLOCK
 62
     0
 10
284.597265
 20
34.68926
 30
0.0
 11
284.597265
 21
34.83926
 31
0.0
  0
LINE
  8
0
  6
BYBLOCK
 62
     0
 10
284.597265
 20
33.98926
 30
0.0
 11
284.597265
 21
33.83926
 31
0.0
  0
SOLID
  8
0
  6
BYBLOCK
 62
     0
 10
284.572265
 20
34.68926
 30
0.0
 11
284.622265
 21
34.68926
 31
0.0
 12
284.597265
 22
34.53926
 32
0.0
 13
284.597265
 23
34.53926
 33
0.0
  0
SOLID
  8
0
  6
BYBLOCK
 62
     0
 10
284.572265
 20
33.98926
 30
0.0
 11
284.622265
 21
33.98926
 31
0.0
 12
284.597265
 22
34.13926
 32
0.0
 13
284.597265
 23
34.13926
 33
0.0
  0
LINE
  8
0
  6
BYBLOCK
 62
     0
 10
284.597265
 20
34.53926
 30
0.0
 11
284.597265
 21
34.13926
 31
0.0
  0
TEXT
  8
0
  6
BYBLOCK
 62
     0
 10
284.559765
 20
34.21426
 30
0.0
 40
0.075
  1
0.40
 50
90.0
  7
ROMANC
 72
     1
 11
284.522265
 21
34.33926
 31
0.0
 73
     2
  0
POINT
  8
DEFPOINTS
  6
BYBLOCK
 62
     0
 10
285.010738
 20
34.53926
 30
0.0
  0
POINT
  8
DEFPOINTS
  6
BYBLOCK
 62
     0
 10
286.110738
 20
34.13926
 30
0.0
  0
POINT
  8
DEFPOINTS
  6
BYBLOCK
 62
     0
 10
284.597265
 20
34.13926
 30
0.0
  0
ENDBLK
  8
0
  0
BLOCK
  8
0
  2
*D5
 70
    65
 10
0.0
 20
0.0
 30
0.0
  3
*D
  0
LINE
  8
0
  6
BYBLOCK
 62
     0
 10
284.995738
 20
35.53926
 30
0.0
 11
284.582265
 21
35.53926
 31
0.0
  0
LINE
  8
0
  6
BYBLOCK
 62
     0
 10
284.995738
 20
34.53926
 30
0.0
 11
284.582265
 21
34.53926
 31
0.0
  0
LINE
  8
0
  6
BYBLOCK
 62
     0
 10
284.597265
 20
35.38926
 30
0.0
 11
284.597265
 21
34.68926
 31
0.0
  0
SOLID
  8
0
  6
BYBLOCK
 62
     0
 10
284.572265
 20
35.38926
 30
0.0
 11
284.622265
 21
35.38926
 31
0.0
 12
284.597265
 22
35.53926
 32
0.0
 13
284.597265
 23
35.53926
 33
0.0
  0
SOLID
  8
0
  6
BYBLOCK
 62
     0
 10
284.572265
 20
34.68926
 30
0.0
 11
284.622265
 21
34.68926
 31
0.0
 12
284.597265
 22
34.53926
 32
0.0
 13
284.597265
 23
34.53926
 33
0.0
  0
TEXT
  8
0
  6
BYBLOCK
 62
     0
 10
284.559765
 20
34.908903
 30
0.0
 40
0.075
  1
1.00
 50
90.0
  7
ROMANC
 72
     1
 11
284.522265
 21
35.03926
 31
0.0
 73
     2
  0
POINT
  8
DEFPOINTS
  6
BYBLOCK
 62
     0
 10
285.010738
 20
35.53926
 30
0.0
  0
POINT
  8
DEFPOINTS
  6
BYBLOCK
 62
     0
 10
285.010738
 20
34.53926
 30
0.0
  0
POINT
  8
DEFPOINTS
  6
BYBLOCK
 62
     0
 10
284.597265
 20
34.53926
 30
0.0
  0
ENDBLK
  8
0
  0
BLOCK
  8
0
  2
*D6
 70
    65
 10
0.0
 20
0.0
 30
0.0
  3
*D
  0
LINE
  8
0
  6
BYBLOCK
 62
     0
 10
286.145738
 20
36.78926
 30
0.0
 11
284.180061
 21
36.78926
 31
0.0
  0
LINE
  8
0
  6
BYBLOCK
 62
     0
 10
286.145738
 20
34.13926
 30
0.0
 11
284.180061
 21
34.13926
 31
0.0
  0
LINE
  8
0
  6
BYBLOCK
 62
     0
 10
284.195061
 20
36.63926
 30
0.0
 11
284.195061
 21
34.28926
 31
0.0
  0
SOLID
  8
0
  6
BYBLOCK
 62
     0
 10
284.170061
 20
36.63926
 30
0.0
 11
284.220061
 21
36.63926
 31
0.0
 12
284.195061
 22
36.78926
 32
0.0
 13
284.195061
 23
36.78926
 33
0.0
  0
SOLID
  8
0
  6
BYBLOCK
 62
     0
 10
284.170061
 20
34.28926
 30
0.0
 11
284.220061
 21
34.28926
 31
0.0
 12
284.195061
 22
34.13926
 32
0.0
 13
284.195061
 23
34.13926
 33
0.0
  0
TEXT
  8
0
  6
BYBLOCK
 62
     0
 10
284.157561
 20
35.33926
 30
0.0
 40
0.075
  1
2.65
 50
90.0
  7
ROMANC
 72
     1
 11
284.120061
 21
35.46426
 31
0.0
 73
     2
  0
POINT
  8
DEFPOINTS
  6
BYBLOCK
 62
     0
 10
286.160738
 20
36.78926
 30
0.0
  0
POINT
  8
DEFPOINTS
  6
BYBLOCK
 62
     0
 10
286.160738
 20
34.13926
 30
0.0
  0
POINT
  8
DEFPOINTS
  6
BYBLOCK
 62
     0
 10
284.195061
 20
34.13926
 30
0.0
  0
ENDBLK
  8
0
  0
BLOCK
  8
0
  2
*D7
 70
    65
 10
0.0
 20
0.0
 30
0.0
  3
*D
  0
LINE
  8
0
  6
BYBLOCK
 62
     0
 10
285.36447
 20
35.55426
 30
0.0
 11
285.36447
 21
35.554887
 31
0.0
  0
LINE
  8
0
  6
BYBLOCK
 62
     0
 10
287.66447
 20
35.55426
 30
0.0
 11
287.66447
 21
35.554887
 31
0.0
  0
LINE
  8
0
  6
BYBLOCK
 62
     0
 10
285.51447
 20
35.539887
 30
0.0
 11
287.51447
 21
35.539887
 31
0.0
  0
SOLID
  8
0
  6
BYBLOCK
 62
     0
 10
285.51447
 20
35.564887
 30
0.0
 11
285.51447
 21
35.514887
 31
0.0
 12
285.36447
 22
35.539887
 32
0.0
 13
285.36447
 23
35.539887
 33
0.0
  0
SOLID
  8
0
  6
BYBLOCK
 62
     0
 10
287.51447
 20
35.564887
 30
0.0
 11
287.51447
 21
35.514887
 31
0.0
 12
287.66447
 22
35.539887
 32
0.0
 13
287.66447
 23
35.539887
 33
0.0
  0
TEXT
  8
0
  6
BYBLOCK
 62
     0
 10
286.38947
 20
35.577387
 30
0.0
 40
0.075
  1
2.30
  7
ROMANC
 72
     1
 11
286.51447
 21
35.614887
 31
0.0
 73
     2
  0
POINT
  8
DEFPOINTS
  6
BYBLOCK
 62
     0
 10
285.36447
 20
35.53926
 30
0.0
  0
POINT
  8
DEFPOINTS
  6
BYBLOCK
 62
     0
 10
287.66447
 20
35.53926
 30
0.0
  0
POINT
  8
DEFPOINTS
  6
BYBLOCK
 62
     0
 10
287.66447
 20
35.539887
 30
0.0
  0
ENDBLK
  8
0
  0
ENDSEC
  0
SECTION
  2
ENTITIES
  0
LINE
  8
0
 10
291.895795
 20
29.897444
 30
0.0
 11
291.895795
 21
44.747444
 31
0.0
  0
TEXT
  8
0
 10
283.887846
 20
40.56142
 30
0.0
 40
0.3
  1
P = 88.7 dm
  7
ROMANC
  0
LINE
  8
0
 10
281.395795
 20
44.747444
 30
0.0
 11
281.395795
 21
29.897444
 31
0.0
  0
LINE
  8
0
 10
281.395795
 20
29.897444
 30
0.0
 11
291.895795
 21
29.897444
 31
0.0
  0
LINE
  8
0
 10
291.895795
 20
44.747444
 30
0.0
 11
281.395795
 21
44.747444
 31
0.0
  0
TEXT
  8
0
 10
287.122271
 20
41.564915
 30
0.0
 40
0.1
  1
2
  7
ROMANC
  0
TEXT
  8
0
 10
283.925768
 20
41.857589
 30
0.0
 40
0.3
  1
ESCALA  1:50
  7
ROMANC
  0
TEXT
  8
0
 10
283.925768
 20
42.343303
 30
0.0
 40
0.3
  1
TIPUS   NT504
  7
ROMANC
  0
TEXT
  8
0
 10
283.938862
 20
41.258999
 30
0.0
 40
0.3
  1
S = 504 dm
  7
ROMANC
  0
LINE
  8
0
  6
BYBLOCK
 62
     0
 10
285.36447
 20
35.55426
 30
0.0
 11
285.36447
 21
35.554887
 31
0.0
  0
LINE
  8
0
  6
BYBLOCK
 62
     0
 10
287.66447
 20
35.55426
 30
0.0
 11
287.66447
 21
35.554887
 31
0.0
  0
LINE
  8
0
  6
BYBLOCK
 62
     0
 10
285.51447
 20
35.539887
 30
0.0
 11
287.51447
 21
35.539887
 31
0.0
  0
SOLID
  8
0
  6
BYBLOCK
 62
     0
 10
285.51447
 20
35.564887
 30
0.0
 11
285.51447
 21
35.514887
 31
0.0
 12
285.36447
 22
35.539887
 32
0.0
 13
285.36447
 23
35.539887
 33
0.0
  0
SOLID
  8
0
  6
BYBLOCK
 62
     0
 10
287.51447
 20
35.564887
 30
0.0
 11
287.51447
 21
35.514887
 31
0.0
 12
287.66447
 22
35.539887
 32
0.0
 13
287.66447
 23
35.539887
 33
0.0
  0
TEXT
  8
0
  6
BYBLOCK
 62
     0
 10
286.38947
 20
35.577387
 30
0.0
 40
0.075
  1
2.30
  7
ROMANC
 72
     1
 11
286.51447
 21
35.614887
 31
0.0
 73
     2
  0
POINT
  8
DEFPOINTS
  6
BYBLOCK
 62
     0
 10
285.36447
 20
35.53926
 30
0.0
  0
POINT
  8
DEFPOINTS
  6
BYBLOCK
 62
     0
 10
287.66447
 20
35.53926
 30
0.0
  0
POINT
  8
DEFPOINTS
  6
BYBLOCK
 62
     0
 10
287.66447
 20
35.539887
 30
0.0
  0
LINE
  8
0
 10
286.44947
 20
34.12426
 30
0.0
 11
287.67947
 21
34.12426
 31
0.0
  0
LINE
  8
0
 10
287.67947
 20
34.12426
 30
0.0
 11
287.67947
 21
35.53926
 31
0.0
  0
ARC
  8
0
 10
286.307863
 20
35.53926
 30
0.0
 40
1.371607
 50
360.0
 51
20.860667
  0
ARC
  8
0
 10
286.408646
 20
35.577666
 30
0.0
 40
1.263755
 50
20.860667
 51
42.614056
  0
ARC
  8
0
 10
286.473069
 20
35.636935
 30
0.0
 40
1.176215
 50
42.614056
 51
65.761195
  0
ARC
  8
0
 10
286.51447
 20
35.728891
 30
0.0
 40
1.075369
 50
65.761195
 51
90.0
  0
ARC
  8
0
 10
286.51447
 20
35.728891
 30
0.0
 40
1.075369
 50
90.0
 51
114.238805
  0
ARC
  8
0
 10
286.555872
 20
35.636935
 30
0.0
 40
1.176215
 50
114.238805
 51
137.385944
  0
ARC
  8
0
 10
286.620295
 20
35.577666
 30
0.0
 40
1.263755
 50
137.385944
 51
159.139333
  0
ARC
  8
0
 10
286.721078
 20
35.53926
 30
0.0
 40
1.371607
 50
159.139333
 51
180.0
  0
LINE
  8
0
 10
285.34947
 20
35.53926
 30
0.0
 11
285.34947
 21
34.52426
 31
0.0
  0
LINE
  8
0
 10
285.34947
 20
34.52426
 30
0.0
 11
286.44947
 21
34.52426
 31
0.0
  0
LINE
  8
0
 10
286.44947
 20
34.52426
 30
0.0
 11
286.44947
 21
34.12426
 31
0.0
  0
LINE
  8
0
 10
286.45697
 20
34.13176
 30
0.0
 11
287.67197
 21
34.13176
 31
0.0
  0
LINE
  8
0
 10
287.67197
 20
34.13176
 30
0.0
 11
287.67197
 21
35.53926
 31
0.0
  0
ARC
  8
0
 10
286.307863
 20
35.53926
 30
0.0
 40
1.364107
 50
0.0
 51
20.860667
  0
ARC
  8
0
 10
286.408646
 20
35.577666
 30
0.0
 40
1.256255
 50
20.860667
 51
42.614056
  0
ARC
  8
0
 10
286.473069
 20
35.636935
 30
0.0
 40
1.168715
 50
42.614056
 51
65.761195
  0
ARC
  8
0
 10
286.51447
 20
35.728891
 30
0.0
 40
1.067869
 50
65.761195
 51
90.0
  0
ARC
  8
0
 10
286.51447
 20
35.728891
 30
0.0
 40
1.067869
 50
90.0
 51
114.238805
  0
ARC
  8
0
 10
286.555872
 20
35.636935
 30
0.0
 40
1.168715
 50
114.238805
 51
137.385944
  0
ARC
  8
0
 10
286.620295
 20
35.577666
 30
0.0
 40
1.256255
 50
137.385944
 51
159.139333
  0
ARC
  8
0
 10
286.721078
 20
35.53926
 30
0.0
 40
1.364107
 50
159.139333
 51
180.0
  0
LINE
  8
0
 10
285.35697
 20
35.53926
 30
0.0
 11
285.35697
 21
34.53176
 31
0.0
  0
LINE
  8
0
 10
285.35697
 20
34.53176
 30
0.0
 11
286.45697
 21
34.53176
 31
0.0
  0
LINE
  8
0
 10
286.45697
 20
34.53176
 30
0.0
 11
286.45697
 21
34.13176
 31
0.0
  0
LINE
  8
0
  6
BYBLOCK
 62
     0
 10
286.49947
 20
36.78926
 30
0.0
 11
284.533793
 21
36.78926
 31
0.0
  0
LINE
  8
0
  6
BYBLOCK
 62
     0
 10
286.49947
 20
34.13926
 30
0.0
 11
284.533793
 21
34.13926
 31
0.0
  0
LINE
  8
0
  6
BYBLOCK
 62
     0
 10
284.548793
 20
36.63926
 30
0.0
 11
284.548793
 21
34.28926
 31
0.0
  0
SOLID
  8
0
  6
BYBLOCK
 62
     0
 10
284.523793
 20
36.63926
 30
0.0
 11
284.573793
 21
36.63926
 31
0.0
 12
284.548793
 22
36.78926
 32
0.0
 13
284.548793
 23
36.78926
 33
0.0
  0
SOLID
  8
0
  6
BYBLOCK
 62
     0
 10
284.523793
 20
34.28926
 30
0.0
 11
284.573793
 21
34.28926
 31
0.0
 12
284.548793
 22
34.13926
 32
0.0
 13
284.548793
 23
34.13926
 33
0.0
  0
TEXT
  8
0
  6
BYBLOCK
 62
     0
 10
284.511293
 20
35.33926
 30
0.0
 40
0.075
  1
2.65
 50
90.0
  7
ROMANC
 72
     1
 11
284.473793
 21
35.46426
 31
0.0
 73
     2
  0
POINT
  8
DEFPOINTS
  6
BYBLOCK
 62
     0
 10
286.51447
 20
36.78926
 30
0.0
  0
POINT
  8
DEFPOINTS
  6
BYBLOCK
 62
     0
 10
286.51447
 20
34.13926
 30
0.0
  0
POINT
  8
DEFPOINTS
  6
BYBLOCK
 62
     0
 10
284.548793
 20
34.13926
 30
0.0
  0
LINE
  8
0
  6
BYBLOCK
 62
     0
 10
285.34947
 20
35.53926
 30
0.0
 11
284.935998
 21
35.53926
 31
0.0
  0
LINE
  8
0
  6
BYBLOCK
 62
     0
 10
285.34947
 20
34.53926
 30
0.0
 11
284.935998
 21
34.53926
 31
0.0
  0
LINE
  8
0
  6
BYBLOCK
 62
     0
 10
284.950998
 20
35.38926
 30
0.0
 11
284.950998
 21
34.68926
 31
0.0
  0
SOLID
  8
0
  6
BYBLOCK
 62
     0
 10
284.925998
 20
35.38926
 30
0.0
 11
284.975998
 21
35.38926
 31
0.0
 12
284.950998
 22
35.53926
 32
0.0
 13
284.950998
 23
35.53926
 33
0.0
  0
SOLID
  8
0
  6
BYBLOCK
 62
     0
 10
284.925998
 20
34.68926
 30
0.0
 11
284.975998
 21
34.68926
 31
0.0
 12
284.950998
 22
34.53926
 32
0.0
 13
284.950998
 23
34.53926
 33
0.0
  0
TEXT
  8
0
  6
BYBLOCK
 62
     0
 10
284.913498
 20
34.908903
 30
0.0
 40
0.075
  1
1.00
 50
90.0
  7
ROMANC
 72
     1
 11
284.875998
 21
35.03926
 31
0.0
 73
     2
  0
POINT
  8
DEFPOINTS
  6
BYBLOCK
 62
     0
 10
285.36447
 20
35.53926
 30
0.0
  0
POINT
  8
DEFPOINTS
  6
BYBLOCK
 62
     0
 10
285.36447
 20
34.53926
 30
0.0
  0
POINT
  8
DEFPOINTS
  6
BYBLOCK
 62
     0
 10
284.950998
 20
34.53926
 30
0.0
  0
LINE
  8
0
  6
BYBLOCK
 62
     0
 10
285.34947
 20
34.53926
 30
0.0
 11
284.935998
 21
34.53926
 31
0.0
  0
LINE
  8
0
  6
BYBLOCK
 62
     0
 10
286.44947
 20
34.13926
 30
0.0
 11
284.935998
 21
34.13926
 31
0.0
  0
LINE
  8
0
  6
BYBLOCK
 62
     0
 10
284.950998
 20
34.68926
 30
0.0
 11
284.950998
 21
34.83926
 31
0.0
  0
LINE
  8
0
  6
BYBLOCK
 62
     0
 10
284.950998
 20
33.98926
 30
0.0
 11
284.950998
 21
33.83926
 31
0.0
  0
SOLID
  8
0
  6
BYBLOCK
 62
     0
 10
284.925998
 20
34.68926
 30
0.0
 11
284.975998
 21
34.68926
 31
0.0
 12
284.950998
 22
34.53926
 32
0.0
 13
284.950998
 23
34.53926
 33
0.0
  0
SOLID
  8
0
  6
BYBLOCK
 62
     0
 10
284.925998
 20
33.98926
 30
0.0
 11
284.975998
 21
33.98926
 31
0.0
 12
284.950998
 22
34.13926
 32
0.0
 13
284.950998
 23
34.13926
 33
0.0
  0
LINE
  8
0
  6
BYBLOCK
 62
     0
 10
284.950998
 20
34.53926
 30
0.0
 11
284.950998
 21
34.13926
 31
0.0
  0
TEXT
  8
0
  6
BYBLOCK
 62
     0
 10
284.913498
 20
34.21426
 30
0.0
 40
0.075
  1
0.40
 50
90.0
  7
ROMANC
 72
     1
 11
284.875998
 21
34.33926
 31
0.0
 73
     2
  0
POINT
  8
DEFPOINTS
  6
BYBLOCK
 62
     0
 10
285.36447
 20
34.53926
 30
0.0
  0
POINT
  8
DEFPOINTS
  6
BYBLOCK
 62
     0
 10
286.46447
 20
34.13926
 30
0.0
  0
POINT
  8
DEFPOINTS
  6
BYBLOCK
 62
     0
 10
284.950998
 20
34.13926
 30
0.0
  0
LINE
  8
0
  6
BYBLOCK
 62
     0
 10
286.46447
 20
34.12426
 30
0.0
 11
286.46447
 21
33.697503
 31
0.0
  0
LINE
  8
0
  6
BYBLOCK
 62
     0
 10
287.66447
 20
34.12426
 30
0.0
 11
287.66447
 21
33.697503
 31
0.0
  0
LINE
  8
0
  6
BYBLOCK
 62
     0
 10
286.61447
 20
33.712503
 30
0.0
 11
287.51447
 21
33.712503
 31
0.0
  0
SOLID
  8
0
  6
BYBLOCK
 62
     0
 10
286.61447
 20
33.737503
 30
0.0
 11
286.61447
 21
33.687503
 31
0.0
 12
286.46447
 22
33.712503
 32
0.0
 13
286.46447
 23
33.712503
 33
0.0
  0
SOLID
  8
0
  6
BYBLOCK
 62
     0
 10
287.51447
 20
33.737503
 30
0.0
 11
287.51447
 21
33.687503
 31
0.0
 12
287.66447
 22
33.712503
 32
0.0
 13
287.66447
 23
33.712503
 33
0.0
  0
TEXT
  8
0
  6
BYBLOCK
 62
     0
 10
286.934113
 20
33.750003
 30
0.0
 40
0.075
  1
1.20
  7
ROMANC
 72
     1
 11
287.06447
 21
33.787503
 31
0.0
 73
     2
  0
POINT
  8
DEFPOINTS
  6
BYBLOCK
 62
     0
 10
286.46447
 20
34.13926
 30
0.0
  0
POINT
  8
DEFPOINTS
  6
BYBLOCK
 62
     0
 10
287.66447
 20
34.13926
 30
0.0
  0
POINT
  8
DEFPOINTS
  6
BYBLOCK
 62
     0
 10
287.66447
 20
33.712503
 30
0.0
  0
LINE
  8
0
  6
BYBLOCK
 62
     0
 10
285.36447
 20
34.52426
 30
0.0
 11
285.36447
 21
33.697503
 31
0.0
  0
LINE
  8
0
  6
BYBLOCK
 62
     0
 10
286.46447
 20
34.12426
 30
0.0
 11
286.46447
 21
33.697503
 31
0.0
  0
LINE
  8
0
  6
BYBLOCK
 62
     0
 10
285.51447
 20
33.712503
 30
0.0
 11
286.31447
 21
33.712503
 31
0.0
  0
SOLID
  8
0
  6
BYBLOCK
 62
     0
 10
285.51447
 20
33.737503
 30
0.0
 11
285.51447
 21
33.687503
 31
0.0
 12
285.36447
 22
33.712503
 32
0.0
 13
285.36447
 23
33.712503
 33
0.0
  0
SOLID
  8
0
  6
BYBLOCK
 62
     0
 10
286.31447
 20
33.737503
 30
0.0
 11
286.31447
 21
33.687503
 31
0.0
 12
286.46447
 22
33.712503
 32
0.0
 13
286.46447
 23
33.712503
 33
0.0
  0
TEXT
  8
0
  6
BYBLOCK
 62
     0
 10
285.784113
 20
33.750003
 30
0.0
 40
0.075
  1
1.10
  7
ROMANC
 72
     1
 11
285.91447
 21
33.787503
 31
0.0
 73
     2
  0
POINT
  8
DEFPOINTS
  6
BYBLOCK
 62
     0
 10
285.36447
 20
34.53926
 30
0.0
  0
POINT
  8
DEFPOINTS
  6
BYBLOCK
 62
     0
 10
286.46447
 20
34.13926
 30
0.0
  0
POINT
  8
DEFPOINTS
  6
BYBLOCK
 62
     0
 10
286.46447
 20
33.712503
 30
0.0
  0
LINE
  8
0
 10
286.46447
 20
34.13926
 30
0.0
 11
287.66447
 21
34.13926
 31
0.0
  0
LINE
  8
0
 10
287.66447
 20
34.13926
 30
0.0
 11
287.66447
 21
35.53926
 31
0.0
  0
ARC
  8
0
 10
286.307863
 20
35.53926
 30
0.0
 40
1.356607
 50
360.0
 51
20.860667
  0
ARC
  8
0
 10
286.408646
 20
35.577666
 30
0.0
 40
1.248755
 50
20.860667
 51
42.614056
  0
ARC
  8
0
 10
286.473069
 20
35.636935
 30
0.0
 40
1.161215
 50
42.614056
 51
65.761195
  0
ARC
  8
0
 10
286.51447
 20
35.728891
 30
0.0
 40
1.060369
 50
65.761195
 51
90.0
  0
ARC
  8
0
 10
286.51447
 20
35.728891
 30
0.0
 40
1.060369
 50
90.0
 51
114.238805
  0
ARC
  8
0
 10
286.555872
 20
35.636935
 30
0.0
 40
1.161215
 50
114.238805
 51
137.385944
  0
ARC
  8
0
 10
286.620295
 20
35.577666
 30
0.0
 40
1.248755
 50
137.385944
 51
159.139333
  0
ARC
  8
0
 10
286.721078
 20
35.53926
 30
0.0
 40
1.356607
 50
159.139333
 51
180.0
  0
LINE
  8
0
 10
285.36447
 20
35.53926
 30
0.0
 11
285.36447
 21
34.53926
 31
0.0
  0
LINE
  8
0
 10
285.36447
 20
34.53926
 30
0.0
 11
286.46447
 21
34.53926
 31
0.0
  0
LINE
  8
0
 10
286.46447
 20
34.53926
 30
0.0
 11
286.46447
 21
34.13926
 31
0.0
  0
ENDSEC
  0
EOF
