  0
SECTION
  2
HEADER
  9
$ACADVER
  1
AC1009
  9
$INSBASE
 10
0.0
 20
0.0
 30
0.0
  9
$EXTMIN
 10
281.396000
 20
29.897000
 30
-2147483.648000
  9
$EXTMAX
 10
291.896000
 20
44.747000
 30
0.000000
  9
$LIMMIN
 10
280.396000
 20
28.897000
  9
$LIMMAX
 10
292.896000
 20
43.747000
  9
$ORTHOMODE
 70
     0
  9
$REGENMODE
 70
     1
  9
$FILLMODE
 70
     1
  9
$QTEXTMODE
 70
     0
  9
$MIRRTEXT
 70
     1
  9
$DRAGMODE
 70
     2
  9
$LTSCALE
 40
1.0
  9
$OSMODE
 70
     0
  9
$ATTMODE
 70
     1
  9
$TEXTSIZE
 40
0.2
  9
$TRACEWID
 40
0.05
  9
$TEXTSTYLE
  7
STANDARD
  9
$CLAYER
  8
0
  9
$CELTYPE
  6
BYLAYER
  9
$CECOLOR
 62
   256
  9
$DIMSCALE
 40
1.0
  9
$DIMASZ
 40
0.18
  9
$DIMEXO
 40
0.0625
  9
$DIMDLI
 40
0.38
  9
$DIMRND
 40
0.0
  9
$DIMDLE
 40
0.0
  9
$DIMEXE
 40
0.18
  9
$DIMTP
 40
0.0
  9
$DIMTM
 40
0.0
  9
$DIMTXT
 40
0.18
  9
$DIMCEN
 40
0.09
  9
$DIMTSZ
 40
0.0
  9
$DIMTOL
 70
     0
  9
$DIMLIM
 70
     0
  9
$DIMTIH
 70
     1
  9
$DIMTOH
 70
     1
  9
$DIMSE1
 70
     0
  9
$DIMSE2
 70
     0
  9
$DIMTAD
 70
     0
  9
$DIMZIN
 70
     0
  9
$DIMBLK
  1

  9
$DIMASO
 70
     1
  9
$DIMSHO
 70
     1
  9
$DIMPOST
  1

  9
$DIMAPOST
  1

  9
$DIMALT
 70
     0
  9
$DIMALTD
 70
     2
  9
$DIMALTF
 40
25.4
  9
$DIMLFAC
 40
1.0
  9
$DIMTOFL
 70
     0
  9
$DIMTVP
 40
0.0
  9
$DIMTIX
 70
     0
  9
$DIMSOXD
 70
     0
  9
$DIMSAH
 70
     0
  9
$DIMBLK1
  1

  9
$DIMBLK2
  1

  9
$DIMSTYLE
  2
*UNNAMED
  9
$DIMCLRD
 70
     0
  9
$DIMCLRE
 70
     0
  9
$DIMCLRT
 70
     0
  9
$DIMTFAC
 40
1.0
  9
$DIMGAP
 40
0.09
  9
$LUNITS
 70
     2
  9
$LUPREC
 70
     4
  9
$AXISMODE
 70
     0
  9
$AXISUNIT
 10
0.0
 20
0.0
  9
$SKETCHINC
 40
0.1
  9
$FILLETRAD
 40
0.0
  9
$AUNITS
 70
     0
  9
$AUPREC
 70
     0
  9
$MENU
  1
acad
  9
$ELEVATION
 40
0.0
  9
$PELEVATION
 40
0.0
  9
$THICKNESS
 40
0.0
  9
$LIMCHECK
 70
     0
  9
$BLIPMODE
 70
     1
  9
$CHAMFERA
 40
0.0
  9
$CHAMFERB
 40
0.0
  9
$SKPOLY
 70
     0
  9
$TDCREATE
 40
2448315.373408102
  9
$TDUPDATE
 40
2448315.373408102
  9
$TDINDWG
 40
0.0000000000
  9
$TDUSRTIMER
 40
0.0000000000
  9
$USRTIMER
 70
     1
  9
$ANGBASE
 50
0.0
  9
$ANGDIR
 70
     0
  9
$PDMODE
 70
     0
  9
$PDSIZE
 40
0.0
  9
$PLINEWID
 40
0.0
  9
$COORDS
 70
     0
  9
$SPLFRAME
 70
     0
  9
$SPLINETYPE
 70
     6
  9
$SPLINESEGS
 70
     8
  9
$ATTDIA
 70
     0
  9
$ATTREQ
 70
     1
  9
$HANDLING
 70
     0
  9
$HANDSEED
  5
0
  9
$SURFTAB1
 70
     6
  9
$SURFTAB2
 70
     6
  9
$SURFTYPE
 70
     6
  9
$SURFU
 70
     6
  9
$SURFV
 70
     6
  9
$UCSNAME
  2

  9
$UCSORG
 10
0.0
 20
0.0
 30
0.0
  9
$UCSXDIR
 10
1.0
 20
0.0
 30
0.0
  9
$UCSYDIR
 10
0.0
 20
1.0
 30
0.0
  9
$PUCSNAME
  2

  9
$PUCSORG
 10
0.0
 20
0.0
 30
0.0
  9
$PUCSXDIR
 10
1.0
 20
0.0
 30
0.0
  9
$PUCSYDIR
 10
0.0
 20
1.0
 30
0.0
  9
$USERI1
 70
     0
  9
$USERI2
 70
     0
  9
$USERI3
 70
     0
  9
$USERI4
 70
     0
  9
$USERI5
 70
     0
  9
$USERR1
 40
0.0
  9
$USERR2
 40
0.0
  9
$USERR3
 40
0.0
  9
$USERR4
 40
0.0
  9
$USERR5
 40
0.0
  9
$WORLDVIEW
 70
     1
  9
$SHADEDGE
 70
     3
  9
$SHADEDIF
 70
    70
  9
$TILEMODE
 70
     1
  9
$MAXACTVP
 70
    16
  9
$PINSBASE
 10
0.0
 20
0.0
 30
0.0
  9
$PLIMCHECK
 70
     0
  9
$PEXTMIN
 10
1.000000E+20
 20
1.000000E+20
 30
1.000000E+20
  9
$PEXTMAX
 10
-1.000000E+20
 20
-1.000000E+20
 30
-1.000000E+20
  9
$PLIMMIN
 10
0.0
 20
0.0
  9
$PLIMMAX
 10
12.0
 20
9.0
  9
$UNITMODE
 70
     0
  9
$VISRETAIN
 70
     0
  0
ENDSEC
  0
SECTION
  2
TABLES
  0
TABLE
  2
LTYPE
 70
    1
  0
LTYPE
  2
CONTINUOUS
 70
    64
3
Solid line
 72
    65
 73
0
 40
0.000000
  0
ENDTAB
  0
TABLE
  2
LAYER
 70
    8
  0
LAYER
  2
0
 70
    64
 62
7
  6
CONTINUOUS
  0
LAYER
  2
1
 70
    64
 62
7
  6
CONTINUOUS
  0
LAYER
  2
7
 70
    64
 62
7
  6
CONTINUOUS
  0
LAYER
  2
8
 70
    64
 62
7
  6
CONTINUOUS
  0
LAYER
  2
9
 70
    64
 62
7
  6
CONTINUOUS
  0
LAYER
  2
22
 70
    64
 62
7
  6
CONTINUOUS
  0
LAYER
  2
25
 70
    64
 62
7
  6
CONTINUOUS
  0
LAYER
  2
0
 70
    64
 62
7
  6
CONTINUOUS
  0
ENDTAB
  0
TABLE
  2
STYLE
 70
    1
  0
STYLE
  2
ROMANC
70
     0
 40
0.0
 41
1.0
 50
0.0
 71
     0
 42
0.2
  3
ROMANC
  4

  0
ENDTAB
  0
ENDSEC
  0
SECTION
  2
BLOCKS
  0
ENDSEC
  0
SECTION
  2
ENTITIES
  0
TEXT
  8
0
  6
CONTINUOUS
 40
0.100000
 10
286.924000
 20
41.327000
  1
2
  7
ROMANC
  0
TEXT
  8
0
  6
CONTINUOUS
 40
0.300000
 10
283.926000
 20
41.768000
  1
ESCALA  1:50
  7
ROMANC
  0
POLYLINE
  8
0
  6
CONTINUOUS
 66
     1
 70
     1
  0
VERTEX
  8
0
  6
CONTINUOUS
 10
281.396000
 20
44.747000
  0
VERTEX
  8
0
  6
CONTINUOUS
 10
291.896000
 20
44.747000
  0
VERTEX
  8
0
  6
CONTINUOUS
 10
291.896000
 20
29.897000
  0
VERTEX
  8
0
  6
CONTINUOUS
 10
281.396000
 20
29.897000
  0
SEQEND
  8
0
  0
TEXT
  8
0
  6
CONTINUOUS
 40
0.300000
 10
283.945000
 20
41.099000
  1
S = 500 dm
  7
ROMANC
  0
TEXT
  8
0
  6
CONTINUOUS
 40
0.300000
 10
283.922000
 20
40.529000
  1
P = 87 dm
  7
ROMANC
  0
TEXT
  8
0
  6
CONTINUOUS
 40
0.300000
 10
283.926000
 20
42.381000
  1
TIPUS   NT500A
  7
ROMANC
  0
LINE
  8
1
  6
CONTINUOUS
 10
285.011000
 20
36.334000
 11
285.011000
 21
35.421000
  0
LINE
  8
1
  6
CONTINUOUS
 10
285.001000
 20
36.336000
 11
285.001000
 21
35.411000
  0
LINE
  8
1
  6
CONTINUOUS
 10
285.011000
 20
35.421000
 11
286.617000
 21
35.421000
  0
LINE
  8
1
  6
CONTINUOUS
 10
285.001000
 20
35.411000
 11
286.613000
 21
35.411000
  0
ARC
  8
1
  6
CONTINUOUS
 10
287.345930
 20
36.156961
 40
1.036042
 50
225.264128
 51
315.194164
  0
ARC
  8
1
  6
CONTINUOUS
 10
287.345930
 20
36.156961
 40
1.046042
 50
225.489981
 51
315.420408
  0
LINE
  8
1
  6
CONTINUOUS
 10
288.081000
 20
35.427000
 11
288.081000
 21
36.334000
  0
LINE
  8
1
  6
CONTINUOUS
 10
288.091000
 20
35.423000
 11
288.091000
 21
36.336000
  0
TEXT
  8
1
  6
CONTINUOUS
 40
0.075000
 10
285.684000
 20
34.764000
  1
1.60
  7
ROMANC
  0
LINE
  8
1
  6
CONTINUOUS
 10
285.646000
 20
34.802000
 11
285.021000
 21
34.802000
  0
LINE
  8
1
  6
CONTINUOUS
 10
285.995000
 20
34.802000
 11
286.621000
 21
34.802000
  0
LINE
  8
1
  6
CONTINUOUS
 10
284.984000
 20
34.783000
 11
285.058000
 21
34.821000
  0
LINE
  8
1
  6
CONTINUOUS
 10
286.658000
 20
34.821000
 11
286.584000
 21
34.783000
  0
LINE
  8
1
  6
CONTINUOUS
 10
285.021000
 20
35.393000
 11
285.021000
 21
34.764000
  0
LINE
  8
1
  6
CONTINUOUS
 10
286.621000
 20
35.393000
 11
286.621000
 21
34.764000
  0
TEXT
  8
1
  6
CONTINUOUS
 40
0.075000
 10
286.409000
 20
34.402000
  1
3.05
  7
ROMANC
  0
LINE
  8
1
  6
CONTINUOUS
 10
286.371000
 20
34.439000
 11
285.021000
 21
34.439000
  0
LINE
  8
1
  6
CONTINUOUS
 10
286.720000
 20
34.439000
 11
288.071000
 21
34.439000
  0
LINE
  8
1
  6
CONTINUOUS
 10
284.984000
 20
34.420000
 11
285.058000
 21
34.458000
  0
LINE
  8
1
  6
CONTINUOUS
 10
288.108000
 20
34.458000
 11
288.034000
 21
34.420000
  0
LINE
  8
1
  6
CONTINUOUS
 10
285.021000
 20
34.764000
 11
285.021000
 21
34.401000
  0
LINE
  8
1
  6
CONTINUOUS
 10
288.071000
 20
35.393000
 11
288.071000
 21
34.401000
  0
TEXT
  8
1
  6
CONTINUOUS
 40
0.075000
 10
288.472000
 20
35.655000
  1
0.30
 50
90.000000
  7
ROMANC
  0
LINE
  8
1
  6
CONTINUOUS
 10
288.434000
 20
35.541000
 11
288.434000
 21
35.431000
  0
LINE
  8
1
  6
CONTINUOUS
 10
288.434000
 20
34.981000
 11
288.434000
 21
35.131000
  0
LINE
  8
1
  6
CONTINUOUS
 10
288.453000
 20
35.394000
 11
288.415000
 21
35.468000
  0
LINE
  8
1
  6
CONTINUOUS
 10
288.415000
 20
35.168000
 11
288.453000
 21
35.094000
  0
LINE
  8
1
  6
CONTINUOUS
 10
288.109000
 20
35.431000
 11
288.472000
 21
35.431000
  0
LINE
  8
1
  6
CONTINUOUS
 10
287.364000
 20
35.131000
 11
288.472000
 21
35.131000
  0
TEXT
  8
1
  6
CONTINUOUS
 40
0.075000
 10
284.382000
 20
35.744000
  1
0.90
 50
90.000000
  7
ROMANC
  0
LINE
  8
1
  6
CONTINUOUS
 10
284.345000
 20
35.706000
 11
284.345000
 21
35.431000
  0
LINE
  8
1
  6
CONTINUOUS
 10
284.345000
 20
36.055000
 11
284.345000
 21
36.331000
  0
LINE
  8
1
  6
CONTINUOUS
 10
284.364000
 20
35.394000
 11
284.326000
 21
35.468000
  0
LINE
  8
1
  6
CONTINUOUS
 10
284.326000
 20
36.368000
 11
284.364000
 21
36.294000
  0
LINE
  8
1
  6
CONTINUOUS
 10
284.983000
 20
35.431000
 11
284.307000
 21
35.431000
  0
LINE
  8
1
  6
CONTINUOUS
 10
284.983000
 20
36.331000
 11
284.307000
 21
36.331000
  0
LINE
  8
1
  6
CONTINUOUS
 10
285.021000
 20
36.331000
 11
285.021000
 21
35.431000
  0
LINE
  8
1
  6
CONTINUOUS
 10
285.021000
 20
35.431000
 11
286.621000
 21
35.431000
  0
ARC
  8
1
  6
CONTINUOUS
 10
287.345930
 20
36.156961
 40
1.026042
 50
225.041131
 51
314.958869
  0
LINE
  8
1
  6
CONTINUOUS
 10
288.071000
 20
35.431000
 11
288.071000
 21
36.331000
  0
ARC
  8
1
  6
CONTINUOUS
 10
286.546000
 20
35.488986
 40
1.752014
 50
388.820458
 51
511.179542
  0
ARC
  8
1
  6
CONTINUOUS
 10
286.546000
 20
35.488986
 40
1.762014
 50
388.736794
 51
511.263206
  0
ARC
  8
1
  6
CONTINUOUS
 10
286.546000
 20
35.488986
 40
1.742014
 50
388.904858
 51
511.095144
  0
TEXT
  8
1
  6
CONTINUOUS
 40
0.075000
 10
289.220000
 20
36.044000
  1
2.10
 50
90.000000
  7
ROMANC
  0
LINE
  8
1
  6
CONTINUOUS
 10
289.182000
 20
36.006000
 11
289.182000
 21
35.131000
  0
LINE
  8
1
  6
CONTINUOUS
 10
289.182000
 20
36.355000
 11
289.182000
 21
37.231000
  0
LINE
  8
1
  6
CONTINUOUS
 10
289.201000
 20
35.094000
 11
289.163000
 21
35.168000
  0
LINE
  8
1
  6
CONTINUOUS
 10
289.163000
 20
37.268000
 11
289.201000
 21
37.194000
  0
LINE
  8
1
  6
CONTINUOUS
 10
288.472000
 20
35.131000
 11
289.220000
 21
35.131000
  0
LINE
  8
1
  6
CONTINUOUS
 10
286.570000
 20
37.231000
 11
289.220000
 21
37.231000
  0
TEXT
  8
1
  6
CONTINUOUS
 40
0.075000
 10
286.409000
 20
37.732000
  1
3.05
  7
ROMANC
  0
LINE
  8
1
  6
CONTINUOUS
 10
286.371000
 20
37.770000
 11
285.021000
 21
37.770000
  0
LINE
  8
1
  6
CONTINUOUS
 10
286.720000
 20
37.770000
 11
288.071000
 21
37.770000
  0
LINE
  8
1
  6
CONTINUOUS
 10
284.984000
 20
37.751000
 11
285.058000
 21
37.789000
  0
LINE
  8
1
  6
CONTINUOUS
 10
288.108000
 20
37.789000
 11
288.034000
 21
37.751000
  0
LINE
  8
1
  6
CONTINUOUS
 10
285.021000
 20
36.369000
 11
285.021000
 21
37.808000
  0
LINE
  8
1
  6
CONTINUOUS
 10
288.071000
 20
36.369000
 11
288.071000
 21
37.808000
  0
TEXT
  8
1
  6
CONTINUOUS
 40
0.075000
 10
288.860000
 20
35.594000
  1
1.20
 50
90.000000
  7
ROMANC
  0
LINE
  8
1
  6
CONTINUOUS
 10
288.823000
 20
35.556000
 11
288.823000
 21
35.131000
  0
LINE
  8
1
  6
CONTINUOUS
 10
288.823000
 20
35.905000
 11
288.823000
 21
36.331000
  0
LINE
  8
1
  6
CONTINUOUS
 10
288.842000
 20
35.094000
 11
288.804000
 21
35.168000
  0
LINE
  8
1
  6
CONTINUOUS
 10
288.804000
 20
36.368000
 11
288.842000
 21
36.294000
  0
LINE
  8
1
  6
CONTINUOUS
 10
288.472000
 20
35.131000
 11
288.861000
 21
35.131000
  0
LINE
  8
1
  6
CONTINUOUS
 10
288.109000
 20
36.331000
 11
288.861000
 21
36.331000
  0
ENDSEC
  0
EOF
