  0
SECTION
  2
HEADER
  9
$ACADVER
  1
AC1009
  9
$INSBASE
 10
0.0
 20
0.0
 30
0.0
  9
$EXTMIN
 10
281.396000
 20
29.897000
 30
-2147483.648000
  9
$EXTMAX
 10
291.896000
 20
44.747000
 30
0.000000
  9
$LIMMIN
 10
280.396000
 20
28.897000
  9
$LIMMAX
 10
292.896000
 20
43.747000
  9
$ORTHOMODE
 70
     0
  9
$REGENMODE
 70
     1
  9
$FILLMODE
 70
     1
  9
$QTEXTMODE
 70
     0
  9
$MIRRTEXT
 70
     1
  9
$DRAGMODE
 70
     2
  9
$LTSCALE
 40
1.0
  9
$OSMODE
 70
     0
  9
$ATTMODE
 70
     1
  9
$TEXTSIZE
 40
0.2
  9
$TRACEWID
 40
0.05
  9
$TEXTSTYLE
  7
STANDARD
  9
$CLAYER
  8
0
  9
$CELTYPE
  6
BYLAYER
  9
$CECOLOR
 62
   256
  9
$DIMSCALE
 40
1.0
  9
$DIMASZ
 40
0.18
  9
$DIMEXO
 40
0.0625
  9
$DIMDLI
 40
0.38
  9
$DIMRND
 40
0.0
  9
$DIMDLE
 40
0.0
  9
$DIMEXE
 40
0.18
  9
$DIMTP
 40
0.0
  9
$DIMTM
 40
0.0
  9
$DIMTXT
 40
0.18
  9
$DIMCEN
 40
0.09
  9
$DIMTSZ
 40
0.0
  9
$DIMTOL
 70
     0
  9
$DIMLIM
 70
     0
  9
$DIMTIH
 70
     1
  9
$DIMTOH
 70
     1
  9
$DIMSE1
 70
     0
  9
$DIMSE2
 70
     0
  9
$DIMTAD
 70
     0
  9
$DIMZIN
 70
     0
  9
$DIMBLK
  1

  9
$DIMASO
 70
     1
  9
$DIMSHO
 70
     1
  9
$DIMPOST
  1

  9
$DIMAPOST
  1

  9
$DIMALT
 70
     0
  9
$DIMALTD
 70
     2
  9
$DIMALTF
 40
25.4
  9
$DIMLFAC
 40
1.0
  9
$DIMTOFL
 70
     0
  9
$DIMTVP
 40
0.0
  9
$DIMTIX
 70
     0
  9
$DIMSOXD
 70
     0
  9
$DIMSAH
 70
     0
  9
$DIMBLK1
  1

  9
$DIMBLK2
  1

  9
$DIMSTYLE
  2
*UNNAMED
  9
$DIMCLRD
 70
     0
  9
$DIMCLRE
 70
     0
  9
$DIMCLRT
 70
     0
  9
$DIMTFAC
 40
1.0
  9
$DIMGAP
 40
0.09
  9
$LUNITS
 70
     2
  9
$LUPREC
 70
     4
  9
$AXISMODE
 70
     0
  9
$AXISUNIT
 10
0.0
 20
0.0
  9
$SKETCHINC
 40
0.1
  9
$FILLETRAD
 40
0.0
  9
$AUNITS
 70
     0
  9
$AUPREC
 70
     0
  9
$MENU
  1
acad
  9
$ELEVATION
 40
0.0
  9
$PELEVATION
 40
0.0
  9
$THICKNESS
 40
0.0
  9
$LIMCHECK
 70
     0
  9
$BLIPMODE
 70
     1
  9
$CHAMFERA
 40
0.0
  9
$CHAMFERB
 40
0.0
  9
$SKPOLY
 70
     0
  9
$TDCREATE
 40
2448315.373408102
  9
$TDUPDATE
 40
2448315.373408102
  9
$TDINDWG
 40
0.0000000000
  9
$TDUSRTIMER
 40
0.0000000000
  9
$USRTIMER
 70
     1
  9
$ANGBASE
 50
0.0
  9
$ANGDIR
 70
     0
  9
$PDMODE
 70
     0
  9
$PDSIZE
 40
0.0
  9
$PLINEWID
 40
0.0
  9
$COORDS
 70
     0
  9
$SPLFRAME
 70
     0
  9
$SPLINETYPE
 70
     6
  9
$SPLINESEGS
 70
     8
  9
$ATTDIA
 70
     0
  9
$ATTREQ
 70
     1
  9
$HANDLING
 70
     0
  9
$HANDSEED
  5
0
  9
$SURFTAB1
 70
     6
  9
$SURFTAB2
 70
     6
  9
$SURFTYPE
 70
     6
  9
$SURFU
 70
     6
  9
$SURFV
 70
     6
  9
$UCSNAME
  2

  9
$UCSORG
 10
0.0
 20
0.0
 30
0.0
  9
$UCSXDIR
 10
1.0
 20
0.0
 30
0.0
  9
$UCSYDIR
 10
0.0
 20
1.0
 30
0.0
  9
$PUCSNAME
  2

  9
$PUCSORG
 10
0.0
 20
0.0
 30
0.0
  9
$PUCSXDIR
 10
1.0
 20
0.0
 30
0.0
  9
$PUCSYDIR
 10
0.0
 20
1.0
 30
0.0
  9
$USERI1
 70
     0
  9
$USERI2
 70
     0
  9
$USERI3
 70
     0
  9
$USERI4
 70
     0
  9
$USERI5
 70
     0
  9
$USERR1
 40
0.0
  9
$USERR2
 40
0.0
  9
$USERR3
 40
0.0
  9
$USERR4
 40
0.0
  9
$USERR5
 40
0.0
  9
$WORLDVIEW
 70
     1
  9
$SHADEDGE
 70
     3
  9
$SHADEDIF
 70
    70
  9
$TILEMODE
 70
     1
  9
$MAXACTVP
 70
    16
  9
$PINSBASE
 10
0.0
 20
0.0
 30
0.0
  9
$PLIMCHECK
 70
     0
  9
$PEXTMIN
 10
1.000000E+20
 20
1.000000E+20
 30
1.000000E+20
  9
$PEXTMAX
 10
-1.000000E+20
 20
-1.000000E+20
 30
-1.000000E+20
  9
$PLIMMIN
 10
0.0
 20
0.0
  9
$PLIMMAX
 10
12.0
 20
9.0
  9
$UNITMODE
 70
     0
  9
$VISRETAIN
 70
     0
  0
ENDSEC
  0
SECTION
  2
TABLES
  0
TABLE
  2
LTYPE
 70
    1
  0
LTYPE
  2
CONTINUOUS
 70
    64
3
Solid line
 72
    65
 73
0
 40
0.000000
  0
ENDTAB
  0
TABLE
  2
LAYER
 70
    8
  0
LAYER
  2
0
 70
    64
 62
7
  6
CONTINUOUS
  0
LAYER
  2
1
 70
    64
 62
7
  6
CONTINUOUS
  0
LAYER
  2
7
 70
    64
 62
7
  6
CONTINUOUS
  0
LAYER
  2
8
 70
    64
 62
7
  6
CONTINUOUS
  0
LAYER
  2
9
 70
    64
 62
7
  6
CONTINUOUS
  0
LAYER
  2
22
 70
    64
 62
7
  6
CONTINUOUS
  0
LAYER
  2
25
 70
    64
 62
7
  6
CONTINUOUS
  0
LAYER
  2
0
 70
    64
 62
7
  6
CONTINUOUS
  0
ENDTAB
  0
TABLE
  2
STYLE
 70
    1
  0
STYLE
  2
ROMANC
70
     0
 40
0.0
 41
1.0
 50
0.0
 71
     0
 42
0.2
  3
ROMANC
  4

  0
ENDTAB
  0
ENDSEC
  0
SECTION
  2
BLOCKS
  0
ENDSEC
  0
SECTION
  2
ENTITIES
  0
TEXT
  8
0
  6
CONTINUOUS
 40
0.100000
 10
286.909000
 20
41.324000
  1
2
  7
ROMANC
  0
TEXT
  8
0
  6
CONTINUOUS
 40
0.300000
 10
283.926000
 20
41.768000
  1
ESCALA  1:50
  7
ROMANC
  0
POLYLINE
  8
0
  6
CONTINUOUS
 66
     1
 70
     1
  0
VERTEX
  8
0
  6
CONTINUOUS
 10
281.396000
 20
44.747000
  0
VERTEX
  8
0
  6
CONTINUOUS
 10
291.896000
 20
44.747000
  0
VERTEX
  8
0
  6
CONTINUOUS
 10
291.896000
 20
29.897000
  0
VERTEX
  8
0
  6
CONTINUOUS
 10
281.396000
 20
29.897000
  0
SEQEND
  8
0
  0
ARC
  8
1
  6
CONTINUOUS
 10
286.409000
 20
31.462673
 40
3.479327
 50
414.408022
 51
485.591978
  0
LINE
  8
1
  6
CONTINUOUS
 10
284.384000
 20
34.292000
 11
284.384000
 21
33.642000
  0
TEXT
  8
0
  6
CONTINUOUS
 40
0.300000
 10
283.922000
 20
40.529000
  1
P = 99 dm
  7
ROMANC
  0
TEXT
  8
0
  6
CONTINUOUS
 40
0.300000
 10
283.945000
 20
41.099000
  1
S = 499 dm
  7
ROMANC
  0
ARC
  8
1
  6
CONTINUOUS
 10
285.409000
 20
34.755281
 40
1.513281
 50
227.364175
 51
312.635825
  0
LINE
  8
1
  6
CONTINUOUS
 10
286.434000
 20
33.642000
 11
288.434000
 21
33.642000
  0
TEXT
  8
1
  6
CONTINUOUS
 40
0.075000
 10
285.290000
 20
32.980000
  1
2.05
  7
ROMANC
  0
LINE
  8
1
  6
CONTINUOUS
 10
285.252000
 20
33.017000
 11
284.384000
 21
33.017000
  0
LINE
  8
1
  6
CONTINUOUS
 10
285.564000
 20
33.017000
 11
286.434000
 21
33.017000
  0
LINE
  8
1
  6
CONTINUOUS
 10
284.346000
 20
32.998000
 11
284.422000
 21
33.036000
  0
LINE
  8
1
  6
CONTINUOUS
 10
286.472000
 20
33.036000
 11
286.396000
 21
32.998000
  0
LINE
  8
1
  6
CONTINUOUS
 10
284.384000
 20
33.604000
 11
284.384000
 21
32.979000
  0
LINE
  8
1
  6
CONTINUOUS
 10
286.434000
 20
33.604000
 11
286.434000
 21
32.979000
  0
TEXT
  8
1
  6
CONTINUOUS
 40
0.075000
 10
287.315000
 20
32.980000
  1
2.00
  7
ROMANC
  0
LINE
  8
1
  6
CONTINUOUS
 10
287.277000
 20
33.017000
 11
286.434000
 21
33.017000
  0
LINE
  8
1
  6
CONTINUOUS
 10
287.589000
 20
33.017000
 11
288.434000
 21
33.017000
  0
LINE
  8
1
  6
CONTINUOUS
 10
286.396000
 20
32.998000
 11
286.472000
 21
33.036000
  0
LINE
  8
1
  6
CONTINUOUS
 10
288.472000
 20
33.036000
 11
288.396000
 21
32.998000
  0
LINE
  8
1
  6
CONTINUOUS
 10
288.434000
 20
33.604000
 11
288.434000
 21
32.979000
  0
TEXT
  8
1
  6
CONTINUOUS
 40
0.075000
 10
286.287000
 20
32.748000
  1
4.05
  7
ROMANC
  0
LINE
  8
1
  6
CONTINUOUS
 10
286.249000
 20
32.786000
 11
284.384000
 21
32.786000
  0
LINE
  8
1
  6
CONTINUOUS
 10
286.568000
 20
32.786000
 11
288.434000
 21
32.786000
  0
LINE
  8
1
  6
CONTINUOUS
 10
284.346000
 20
32.767000
 11
284.422000
 21
32.805000
  0
LINE
  8
1
  6
CONTINUOUS
 10
288.472000
 20
32.805000
 11
288.396000
 21
32.767000
  0
LINE
  8
1
  6
CONTINUOUS
 10
284.384000
 20
33.604000
 11
284.384000
 21
32.748000
  0
LINE
  8
1
  6
CONTINUOUS
 10
288.434000
 20
33.604000
 11
288.434000
 21
32.748000
  0
LINE
  8
1
  6
CONTINUOUS
 10
288.434000
 20
33.642000
 11
288.434000
 21
34.292000
  0
TEXT
  8
1
  6
CONTINUOUS
 40
0.075000
 10
288.758000
 20
33.320000
  1
0.40
 50
90.000000
  7
ROMANC
  0
LINE
  8
1
  6
CONTINUOUS
 10
288.721000
 20
33.092000
 11
288.721000
 21
33.242000
  0
LINE
  8
1
  6
CONTINUOUS
 10
288.721000
 20
33.792000
 11
288.721000
 21
33.642000
  0
LINE
  8
1
  6
CONTINUOUS
 10
288.702000
 20
33.280000
 11
288.740000
 21
33.204000
  0
LINE
  8
1
  6
CONTINUOUS
 10
288.740000
 20
33.604000
 11
288.702000
 21
33.680000
  0
LINE
  8
1
  6
CONTINUOUS
 10
285.447000
 20
33.242000
 11
288.759000
 21
33.242000
  0
LINE
  8
1
  6
CONTINUOUS
 10
288.472000
 20
33.642000
 11
288.759000
 21
33.642000
  0
TEXT
  8
1
  6
CONTINUOUS
 40
0.075000
 10
288.758000
 20
33.848000
  1
0.65
 50
90.000000
  7
ROMANC
  0
LINE
  8
1
  6
CONTINUOUS
 10
288.721000
 20
33.810000
 11
288.721000
 21
33.642000
  0
LINE
  8
1
  6
CONTINUOUS
 10
288.721000
 20
34.122000
 11
288.721000
 21
34.292000
  0
LINE
  8
1
  6
CONTINUOUS
 10
288.740000
 20
33.604000
 11
288.702000
 21
33.680000
  0
LINE
  8
1
  6
CONTINUOUS
 10
288.702000
 20
34.330000
 11
288.740000
 21
34.254000
  0
LINE
  8
1
  6
CONTINUOUS
 10
288.472000
 20
34.292000
 11
288.759000
 21
34.292000
  0
TEXT
  8
1
  6
CONTINUOUS
 40
0.075000
 10
289.020000
 20
33.982000
  1
1.70
 50
90.000000
  7
ROMANC
  0
LINE
  8
1
  6
CONTINUOUS
 10
288.982000
 20
33.944000
 11
288.982000
 21
33.242000
  0
LINE
  8
1
  6
CONTINUOUS
 10
288.982000
 20
34.239000
 11
288.982000
 21
34.942000
  0
LINE
  8
1
  6
CONTINUOUS
 10
289.001000
 20
33.204000
 11
288.963000
 21
33.280000
  0
LINE
  8
1
  6
CONTINUOUS
 10
288.963000
 20
34.980000
 11
289.001000
 21
34.904000
  0
LINE
  8
1
  6
CONTINUOUS
 10
285.447000
 20
33.242000
 11
289.020000
 21
33.242000
  0
LINE
  8
1
  6
CONTINUOUS
 10
286.447000
 20
34.942000
 11
289.020000
 21
34.942000
  0
ARC
  8
1
  6
CONTINUOUS
 10
286.409000
 20
31.462673
 40
3.489327
 50
414.323575
 51
485.676425
  0
ARC
  8
1
  6
CONTINUOUS
 10
286.409000
 20
31.462673
 40
3.499327
 50
414.239519
 51
485.760481
  0
LINE
  8
1
  6
CONTINUOUS
 10
284.374000
 20
34.297000
 11
284.374000
 21
33.638000
  0
LINE
  8
1
  6
CONTINUOUS
 10
284.364000
 20
34.302000
 11
284.364000
 21
33.633000
  0
ARC
  8
1
  6
CONTINUOUS
 10
285.409000
 20
34.755281
 40
1.523281
 50
587.198986
 51
672.488836
  0
ARC
  8
1
  6
CONTINUOUS
 10
285.409000
 20
34.755281
 40
1.533281
 50
587.035517
 51
672.343358
  0
LINE
  8
1
  6
CONTINUOUS
 10
286.438000
 20
33.632000
 11
288.444000
 21
33.632000
  0
LINE
  8
1
  6
CONTINUOUS
 10
286.442000
 20
33.622000
 11
288.454000
 21
33.622000
  0
LINE
  8
1
  6
CONTINUOUS
 10
288.444000
 20
33.632000
 11
288.444000
 21
34.297000
  0
LINE
  8
1
  6
CONTINUOUS
 10
288.454000
 20
33.622000
 11
288.454000
 21
34.302000
  0
TEXT
  8
0
  6
CONTINUOUS
 40
0.300000
 10
283.926000
 20
42.381000
  1
TIPUS   NT499
  7
ROMANC
  0
ENDSEC
  0
EOF
