  0
SECTION
  2
HEADER
  9
$ACADVER
  1
AC1009
  9
$INSBASE
 10
105.464027
 20
-4.528761
 30
0.0
  9
$EXTMIN
 10
281.395795
 20
29.897444
 30
0.0
  9
$EXTMAX
 10
291.895795
 20
44.747444
 30
0.0
  9
$LIMMIN
 10
0.0
 20
0.0
  9
$LIMMAX
 10
410.0
 20
287.0
  9
$ORTHOMODE
 70
     1
  9
$REGENMODE
 70
     1
  9
$FILLMODE
 70
     1
  9
$QTEXTMODE
 70
     0
  9
$MIRRTEXT
 70
     1
  9
$DRAGMODE
 70
     2
  9
$LTSCALE
 40
25.0
  9
$OSMODE
 70
    32
  9
$ATTMODE
 70
     1
  9
$TEXTSIZE
 40
0.1
  9
$TRACEWID
 40
1.0
  9
$TEXTSTYLE
  7
ROMANC
  9
$CLAYER
  8
0
  9
$CELTYPE
  6
BYLAYER
  9
$CECOLOR
 62
   256
  9
$DIMSCALE
 40
1.5
  9
$DIMASZ
 40
0.1
  9
$DIMEXO
 40
0.01
  9
$DIMDLI
 40
7.0
  9
$DIMRND
 40
0.0
  9
$DIMDLE
 40
0.0
  9
$DIMEXE
 40
0.01
  9
$DIMTP
 40
0.0
  9
$DIMTM
 40
0.0
  9
$DIMTXT
 40
0.05
  9
$DIMCEN
 40
0.1
  9
$DIMTSZ
 40
0.0
  9
$DIMTOL
 70
     0
  9
$DIMLIM
 70
     0
  9
$DIMTIH
 70
     0
  9
$DIMTOH
 70
     0
  9
$DIMSE1
 70
     0
  9
$DIMSE2
 70
     0
  9
$DIMTAD
 70
     1
  9
$DIMZIN
 70
     0
  9
$DIMBLK
  1

  9
$DIMASO
 70
     1
  9
$DIMSHO
 70
     0
  9
$DIMPOST
  1

  9
$DIMAPOST
  1

  9
$DIMALT
 70
     0
  9
$DIMALTD
 70
     2
  9
$DIMALTF
 40
25.4
  9
$DIMLFAC
 40
1.0
  9
$DIMTOFL
 70
     1
  9
$DIMTVP
 40
0.0
  9
$DIMTIX
 70
     1
  9
$DIMSOXD
 70
     0
  9
$DIMSAH
 70
     0
  9
$DIMBLK1
  1

  9
$DIMBLK2
  1

  9
$DIMSTYLE
  2
*UNNAMED
  9
$DIMCLRD
 70
     0
  9
$DIMCLRE
 70
     0
  9
$DIMCLRT
 70
     0
  9
$DIMTFAC
 40
70.0
  9
$DIMGAP
 40
0.09
  9
$LUNITS
 70
     2
  9
$LUPREC
 70
     2
  9
$SKETCHINC
 40
1.0
  9
$FILLETRAD
 40
0.0
  9
$AUNITS
 70
     0
  9
$AUPREC
 70
     0
  9
$MENU
  1
acad
  9
$ELEVATION
 40
0.0
  9
$PELEVATION
 40
0.0
  9
$THICKNESS
 40
0.0
  9
$LIMCHECK
 70
     0
  9
$BLIPMODE
 70
     0
  9
$CHAMFERA
 40
0.0
  9
$CHAMFERB
 40
0.0
  9
$SKPOLY
 70
     0
  9
$TDCREATE
 40
2450305.554557986
  9
$TDUPDATE
 40
2450910.746407523
  9
$TDINDWG
 40
0.1418083333
  9
$TDUSRTIMER
 40
0.1418083333
  9
$USRTIMER
 70
     1
  9
$ANGBASE
 50
0.0
  9
$ANGDIR
 70
     0
  9
$PDMODE
 70
     0
  9
$PDSIZE
 40
0.0
  9
$PLINEWID
 40
0.0
  9
$COORDS
 70
     2
  9
$SPLFRAME
 70
     0
  9
$SPLINETYPE
 70
     6
  9
$SPLINESEGS
 70
     8
  9
$ATTDIA
 70
     0
  9
$ATTREQ
 70
     1
  9
$HANDLING
 70
     0
  9
$HANDSEED
  5
0
  9
$SURFTAB1
 70
     6
  9
$SURFTAB2
 70
     6
  9
$SURFTYPE
 70
     6
  9
$SURFU
 70
     6
  9
$SURFV
 70
     6
  9
$UCSNAME
  2

  9
$UCSORG
 10
0.0
 20
0.0
 30
0.0
  9
$UCSXDIR
 10
1.0
 20
0.0
 30
0.0
  9
$UCSYDIR
 10
0.0
 20
1.0
 30
0.0
  9
$PUCSNAME
  2

  9
$PUCSORG
 10
0.0
 20
0.0
 30
0.0
  9
$PUCSXDIR
 10
1.0
 20
0.0
 30
0.0
  9
$PUCSYDIR
 10
0.0
 20
1.0
 30
0.0
  9
$USERI1
 70
     0
  9
$USERI2
 70
     0
  9
$USERI3
 70
     0
  9
$USERI4
 70
     0
  9
$USERI5
 70
     0
  9
$USERR1
 40
0.0
  9
$USERR2
 40
0.0
  9
$USERR3
 40
0.0
  9
$USERR4
 40
0.0
  9
$USERR5
 40
0.0
  9
$WORLDVIEW
 70
     1
  9
$SHADEDGE
 70
     3
  9
$SHADEDIF
 70
    70
  9
$TILEMODE
 70
     1
  9
$MAXACTVP
 70
    16
  9
$PINSBASE
 10
0.0
 20
0.0
 30
0.0
  9
$PLIMCHECK
 70
     0
  9
$PEXTMIN
 10
1.000000E+20
 20
1.000000E+20
 30
1.000000E+20
  9
$PEXTMAX
 10
-1.000000E+20
 20
-1.000000E+20
 30
-1.000000E+20
  9
$PLIMMIN
 10
0.0
 20
0.0
  9
$PLIMMAX
 10
12.0
 20
9.0
  9
$UNITMODE
 70
     0
  9
$VISRETAIN
 70
     0
  9
$PLINEGEN
 70
     0
  9
$PSLTSCALE
 70
     0
  9
$TREEDEPTH
 70
  3020
  9
$DWGCODEPAGE
  3
iso8859-1
  0
ENDSEC
  0
SECTION
  2
TABLES
  0
TABLE
  2
VPORT
 70
     2
  0
VPORT
  2
*ACTIVE
 70
     0
 10
0.0
 20
0.0
 11
1.0
 21
1.0
 12
292.715233
 22
37.322444
 13
0.0
 23
0.0
 14
1.0
 24
1.0
 15
10.0
 25
10.0
 16
0.0
 26
0.0
 36
1.0
 17
0.0
 27
0.0
 37
0.0
 40
14.85
 41
1.524503
 42
50.0
 43
0.0
 44
0.0
 50
0.0
 51
0.0
 71
     0
 72
   100
 73
     1
 74
     0
 75
     0
 76
     0
 77
     0
 78
     1
  0
ENDTAB
  0
TABLE
  2
LTYPE
 70
     1
  0
LTYPE
  2
CONTINUOUS
 70
    64
  3
Solid line
 72
    65
 73
     0
 40
0.0
  0
ENDTAB
  0
TABLE
  2
LAYER
 70
     3
  0
LAYER
  2
0
 70
    64
 62
     7
  6
CONTINUOUS
  0
LAYER
  2
MESURA
 70
     0
 62
     7
  6
CONTINUOUS
  0
LAYER
  2
DEFPOINTS
 70
     0
 62
     7
  6
CONTINUOUS
  0
ENDTAB
  0
TABLE
  2
STYLE
 70
     2
  0
STYLE
  2
STANDARD
 70
     0
 40
0.0
 41
1.0
 50
0.0
 71
     0
 42
0.1
  3
txt
  4

  0
STYLE
  2
ROMANC
 70
    64
 40
0.0
 41
1.0
 50
0.0
 71
     0
 42
0.1
  3
romanc
  4

  0
ENDTAB
  0
TABLE
  2
VIEW
 70
     0
  0
ENDTAB
  0
TABLE
  2
UCS
 70
     0
  0
ENDTAB
  0
TABLE
  2
APPID
 70
     1
  0
APPID
  2
ACAD
 70
    64
  0
ENDTAB
  0
TABLE
  2
DIMSTYLE
 70
     1
  0
DIMSTYLE
  2
SILVIA
 70
     0
  3

  4

  5

  6

  7

 40
1.5
 41
0.1
 42
0.01
 43
7.0
 44
0.01
 45
0.0
 46
0.0
 47
0.0
 48
0.0
140
0.05
141
0.1
142
0.0
143
25.4
144
1.0
145
0.0
146
70.0
147
0.09
 71
     0
 72
     0
 73
     0
 74
     0
 75
     0
 76
     0
 77
     1
 78
     0
170
     0
171
     2
172
     1
173
     0
174
     1
175
     0
176
     0
177
     0
178
     0
  0
ENDTAB
  0
ENDSEC
  0
SECTION
  2
BLOCKS
  0
BLOCK
  8
0
  2
*D0
 70
    65
 10
0.0
 20
0.0
 30
0.0
  3
*D
  0
LINE
  8
0
  6
BYBLOCK
 62
     0
 10
285.508041
 20
35.754882
 30
0.0
 11
285.508041
 21
34.637225
 31
0.0
  0
LINE
  8
0
  6
BYBLOCK
 62
     0
 10
287.622822
 20
35.774355
 30
0.0
 11
287.622822
 21
34.637225
 31
0.0
  0
LINE
  8
0
  6
BYBLOCK
 62
     0
 10
285.658041
 20
34.652225
 30
0.0
 11
287.472822
 21
34.652225
 31
0.0
  0
SOLID
  8
0
  6
BYBLOCK
 62
     0
 10
285.658041
 20
34.677225
 30
0.0
 11
285.658041
 21
34.627225
 31
0.0
 12
285.508041
 22
34.652225
 32
0.0
 13
285.508041
 23
34.652225
 33
0.0
  0
SOLID
  8
0
  6
BYBLOCK
 62
     0
 10
287.472822
 20
34.677225
 30
0.0
 11
287.472822
 21
34.627225
 31
0.0
 12
287.622822
 22
34.652225
 32
0.0
 13
287.622822
 23
34.652225
 33
0.0
  0
TEXT
  8
0
  6
BYBLOCK
 62
     0
 10
286.444003
 20
34.689725
 30
0.0
 40
0.075
  1
2.11
  7
ROMANC
 72
     1
 11
286.565432
 21
34.727225
 31
0.0
 73
     2
  0
POINT
  8
DEFPOINTS
  6
BYBLOCK
 62
     0
 10
285.508041
 20
35.769882
 30
0.0
  0
POINT
  8
DEFPOINTS
  6
BYBLOCK
 62
     0
 10
287.622822
 20
35.789355
 30
0.0
  0
POINT
  8
DEFPOINTS
  6
BYBLOCK
 62
     0
 10
287.622822
 20
34.652225
 30
0.0
  0
ENDBLK
  8
0
  0
BLOCK
  8
0
  2
*D1
 70
    65
 10
0.0
 20
0.0
 30
0.0
  3
*D
  0
LINE
  8
0
  6
BYBLOCK
 62
     0
 10
286.593399
 20
36.579952
 30
0.0
 11
288.030934
 21
36.579952
 31
0.0
  0
LINE
  8
0
  6
BYBLOCK
 62
     0
 10
286.567465
 20
34.979285
 30
0.0
 11
288.030934
 21
34.979285
 31
0.0
  0
LINE
  8
0
  6
BYBLOCK
 62
     0
 10
288.015934
 20
36.429952
 30
0.0
 11
288.015934
 21
35.129285
 31
0.0
  0
SOLID
  8
0
  6
BYBLOCK
 62
     0
 10
287.990934
 20
36.429952
 30
0.0
 11
288.040934
 21
36.429952
 31
0.0
 12
288.015934
 22
36.579952
 32
0.0
 13
288.015934
 23
36.579952
 33
0.0
  0
SOLID
  8
0
  6
BYBLOCK
 62
     0
 10
287.990934
 20
35.129285
 30
0.0
 11
288.040934
 21
35.129285
 31
0.0
 12
288.015934
 22
34.979285
 32
0.0
 13
288.015934
 23
34.979285
 33
0.0
  0
TEXT
  8
0
  6
BYBLOCK
 62
     0
 10
287.978434
 20
35.649261
 30
0.0
 40
0.075
  1
1.60
 50
90.0
  7
ROMANC
 72
     1
 11
287.940934
 21
35.779619
 31
0.0
 73
     2
  0
POINT
  8
DEFPOINTS
  6
BYBLOCK
 62
     0
 10
286.578399
 20
36.579952
 30
0.0
  0
POINT
  8
DEFPOINTS
  6
BYBLOCK
 62
     0
 10
286.552465
 20
34.979285
 30
0.0
  0
POINT
  8
DEFPOINTS
  6
BYBLOCK
 62
     0
 10
288.015934
 20
34.979285
 30
0.0
  0
ENDBLK
  8
0
  0
BLOCK
  8
0
  2
*D2
 70
    65
 10
0.0
 20
0.0
 30
0.0
  3
*D
  0
LINE
  8
0
  6
BYBLOCK
 62
     0
 10
284.431952
 20
35.255737
 30
0.0
 11
284.431952
 21
34.032779
 31
0.0
  0
LINE
  8
0
  6
BYBLOCK
 62
     0
 10
287.431952
 20
35.255737
 30
0.0
 11
287.431952
 21
34.032779
 31
0.0
  0
LINE
  8
0
  6
BYBLOCK
 62
     0
 10
284.581952
 20
34.047779
 30
0.0
 11
287.281952
 21
34.047779
 31
0.0
  0
SOLID
  8
0
  6
BYBLOCK
 62
     0
 10
284.581952
 20
34.072779
 30
0.0
 11
284.581952
 21
34.022779
 31
0.0
 12
284.431952
 22
34.047779
 32
0.0
 13
284.431952
 23
34.047779
 33
0.0
  0
SOLID
  8
0
  6
BYBLOCK
 62
     0
 10
287.281952
 20
34.072779
 30
0.0
 11
287.281952
 21
34.022779
 31
0.0
 12
287.431952
 22
34.047779
 32
0.0
 13
287.431952
 23
34.047779
 33
0.0
  0
TEXT
  8
0
  6
BYBLOCK
 62
     0
 10
285.806952
 20
34.085279
 30
0.0
 40
0.075
  1
3.00
  7
ROMANC
 72
     1
 11
285.931952
 21
34.122779
 31
0.0
 73
     2
  0
POINT
  8
DEFPOINTS
  6
BYBLOCK
 62
     0
 10
284.431952
 20
35.270737
 30
0.0
  0
POINT
  8
DEFPOINTS
  6
BYBLOCK
 62
     0
 10
287.431952
 20
35.270737
 30
0.0
  0
POINT
  8
DEFPOINTS
  6
BYBLOCK
 62
     0
 10
287.431952
 20
34.047779
 30
0.0
  0
ENDBLK
  8
0
  0
BLOCK
  8
0
  2
*D3
 70
    65
 10
0.0
 20
0.0
 30
0.0
  3
*D
  0
LINE
  8
0
  6
BYBLOCK
 62
     0
 10
285.946952
 20
34.345737
 30
0.0
 11
287.911675
 21
34.345737
 31
0.0
  0
LINE
  8
0
  6
BYBLOCK
 62
     0
 10
285.946952
 20
36.195737
 30
0.0
 11
287.911675
 21
36.195737
 31
0.0
  0
LINE
  8
0
  6
BYBLOCK
 62
     0
 10
287.896675
 20
34.495737
 30
0.0
 11
287.896675
 21
36.045737
 31
0.0
  0
SOLID
  8
0
  6
BYBLOCK
 62
     0
 10
287.871675
 20
34.495737
 30
0.0
 11
287.921675
 21
34.495737
 31
0.0
 12
287.896675
 22
34.345737
 32
0.0
 13
287.896675
 23
34.345737
 33
0.0
  0
SOLID
  8
0
  6
BYBLOCK
 62
     0
 10
287.871675
 20
36.045737
 30
0.0
 11
287.921675
 21
36.045737
 31
0.0
 12
287.896675
 22
36.195737
 32
0.0
 13
287.896675
 23
36.195737
 33
0.0
  0
TEXT
  8
0
  6
BYBLOCK
 62
     0
 10
287.859175
 20
35.14038
 30
0.0
 40
0.075
  1
1.85
 50
90.0
  7
ROMANC
 72
     1
 11
287.821675
 21
35.270737
 31
0.0
 73
     2
  0
POINT
  8
DEFPOINTS
  6
BYBLOCK
 62
     0
 10
285.931952
 20
34.345737
 30
0.0
  0
POINT
  8
DEFPOINTS
  6
BYBLOCK
 62
     0
 10
285.931952
 20
36.195737
 30
0.0
  0
POINT
  8
DEFPOINTS
  6
BYBLOCK
 62
     0
 10
287.896675
 20
36.195737
 30
0.0
  0
ENDBLK
  8
0
  0
BLOCK
  8
0
  2
*D4
 70
    65
 10
0.0
 20
0.0
 30
0.0
  3
*D
  0
LINE
  8
0
  6
BYBLOCK
 62
     0
 10
287.035883
 20
34.651292
 30
0.0
 11
287.035883
 21
34.154024
 31
0.0
  0
LINE
  8
0
  6
BYBLOCK
 62
     0
 10
288.335883
 20
34.651292
 30
0.0
 11
288.335883
 21
34.154024
 31
0.0
  0
LINE
  8
0
  6
BYBLOCK
 62
     0
 10
287.185883
 20
34.169024
 30
0.0
 11
288.185883
 21
34.169024
 31
0.0
  0
SOLID
  8
0
  6
BYBLOCK
 62
     0
 10
287.185883
 20
34.194024
 30
0.0
 11
287.185883
 21
34.144024
 31
0.0
 12
287.035883
 22
34.169024
 32
0.0
 13
287.035883
 23
34.169024
 33
0.0
  0
SOLID
  8
0
  6
BYBLOCK
 62
     0
 10
288.185883
 20
34.194024
 30
0.0
 11
288.185883
 21
34.144024
 31
0.0
 12
288.335883
 22
34.169024
 32
0.0
 13
288.335883
 23
34.169024
 33
0.0
  0
TEXT
  8
0
  6
BYBLOCK
 62
     0
 10
287.555526
 20
34.206524
 30
0.0
 40
0.075
  1
1.30
  7
ROMANC
 72
     1
 11
287.685883
 21
34.244024
 31
0.0
 73
     2
  0
POINT
  8
DEFPOINTS
  6
BYBLOCK
 62
     0
 10
287.035883
 20
34.666292
 30
0.0
  0
POINT
  8
DEFPOINTS
  6
BYBLOCK
 62
     0
 10
288.335883
 20
34.666292
 30
0.0
  0
POINT
  8
DEFPOINTS
  6
BYBLOCK
 62
     0
 10
288.335883
 20
34.169024
 30
0.0
  0
ENDBLK
  8
0
  0
BLOCK
  8
0
  2
*D5
 70
    65
 10
0.0
 20
0.0
 30
0.0
  3
*D
  0
LINE
  8
0
  6
BYBLOCK
 62
     0
 10
287.035883
 20
35.001292
 30
0.0
 11
287.035883
 21
34.154024
 31
0.0
  0
LINE
  8
0
  6
BYBLOCK
 62
     0
 10
286.435883
 20
35.001292
 30
0.0
 11
286.435883
 21
34.154024
 31
0.0
  0
LINE
  8
0
  6
BYBLOCK
 62
     0
 10
287.185883
 20
34.169024
 30
0.0
 11
287.335883
 21
34.169024
 31
0.0
  0
LINE
  8
0
  6
BYBLOCK
 62
     0
 10
286.285883
 20
34.169024
 30
0.0
 11
286.135883
 21
34.169024
 31
0.0
  0
SOLID
  8
0
  6
BYBLOCK
 62
     0
 10
287.185883
 20
34.194024
 30
0.0
 11
287.185883
 21
34.144024
 31
0.0
 12
287.035883
 22
34.169024
 32
0.0
 13
287.035883
 23
34.169024
 33
0.0
  0
SOLID
  8
0
  6
BYBLOCK
 62
     0
 10
286.285883
 20
34.194024
 30
0.0
 11
286.285883
 21
34.144024
 31
0.0
 12
286.435883
 22
34.169024
 32
0.0
 13
286.435883
 23
34.169024
 33
0.0
  0
LINE
  8
0
  6
BYBLOCK
 62
     0
 10
287.035883
 20
34.169024
 30
0.0
 11
286.435883
 21
34.169024
 31
0.0
  0
TEXT
  8
0
  6
BYBLOCK
 62
     0
 10
286.610883
 20
34.206524
 30
0.0
 40
0.075
  1
0.60
  7
ROMANC
 72
     1
 11
286.735883
 21
34.244024
 31
0.0
 73
     2
  0
POINT
  8
DEFPOINTS
  6
BYBLOCK
 62
     0
 10
287.035883
 20
35.016292
 30
0.0
  0
POINT
  8
DEFPOINTS
  6
BYBLOCK
 62
     0
 10
286.435883
 20
35.016292
 30
0.0
  0
POINT
  8
DEFPOINTS
  6
BYBLOCK
 62
     0
 10
286.435883
 20
34.169024
 30
0.0
  0
ENDBLK
  8
0
  0
BLOCK
  8
0
  2
*D6
 70
    65
 10
0.0
 20
0.0
 30
0.0
  3
*D
  0
LINE
  8
0
  6
BYBLOCK
 62
     0
 10
286.435883
 20
35.001292
 30
0.0
 11
286.435883
 21
33.748436
 31
0.0
  0
LINE
  8
0
  6
BYBLOCK
 62
     0
 10
288.335883
 20
34.651292
 30
0.0
 11
288.335883
 21
33.748436
 31
0.0
  0
LINE
  8
0
  6
BYBLOCK
 62
     0
 10
286.585883
 20
33.763436
 30
0.0
 11
288.185883
 21
33.763436
 31
0.0
  0
SOLID
  8
0
  6
BYBLOCK
 62
     0
 10
286.585883
 20
33.788436
 30
0.0
 11
286.585883
 21
33.738436
 31
0.0
 12
286.435883
 22
33.763436
 32
0.0
 13
286.435883
 23
33.763436
 33
0.0
  0
SOLID
  8
0
  6
BYBLOCK
 62
     0
 10
288.185883
 20
33.788436
 30
0.0
 11
288.185883
 21
33.738436
 31
0.0
 12
288.335883
 22
33.763436
 32
0.0
 13
288.335883
 23
33.763436
 33
0.0
  0
TEXT
  8
0
  6
BYBLOCK
 62
     0
 10
287.255526
 20
33.800936
 30
0.0
 40
0.075
  1
1.90
  7
ROMANC
 72
     1
 11
287.385883
 21
33.838436
 31
0.0
 73
     2
  0
POINT
  8
DEFPOINTS
  6
BYBLOCK
 62
     0
 10
286.435883
 20
35.016292
 30
0.0
  0
POINT
  8
DEFPOINTS
  6
BYBLOCK
 62
     0
 10
288.335883
 20
34.666292
 30
0.0
  0
POINT
  8
DEFPOINTS
  6
BYBLOCK
 62
     0
 10
288.335883
 20
33.763436
 30
0.0
  0
ENDBLK
  8
0
  0
BLOCK
  8
0
  2
*D7
 70
    65
 10
0.0
 20
0.0
 30
0.0
  3
*D
  0
LINE
  8
0
  6
BYBLOCK
 62
     0
 10
287.035883
 20
34.651292
 30
0.0
 11
287.035883
 21
34.154024
 31
0.0
  0
LINE
  8
0
  6
BYBLOCK
 62
     0
 10
286.435883
 20
35.001292
 30
0.0
 11
286.435883
 21
34.154024
 31
0.0
  0
LINE
  8
0
  6
BYBLOCK
 62
     0
 10
287.185883
 20
34.169024
 30
0.0
 11
287.335883
 21
34.169024
 31
0.0
  0
LINE
  8
0
  6
BYBLOCK
 62
     0
 10
286.285883
 20
34.169024
 30
0.0
 11
286.135883
 21
34.169024
 31
0.0
  0
SOLID
  8
0
  6
BYBLOCK
 62
     0
 10
287.185883
 20
34.194024
 30
0.0
 11
287.185883
 21
34.144024
 31
0.0
 12
287.035883
 22
34.169024
 32
0.0
 13
287.035883
 23
34.169024
 33
0.0
  0
SOLID
  8
0
  6
BYBLOCK
 62
     0
 10
286.285883
 20
34.194024
 30
0.0
 11
286.285883
 21
34.144024
 31
0.0
 12
286.435883
 22
34.169024
 32
0.0
 13
286.435883
 23
34.169024
 33
0.0
  0
LINE
  8
0
  6
BYBLOCK
 62
     0
 10
287.035883
 20
34.169024
 30
0.0
 11
286.435883
 21
34.169024
 31
0.0
  0
TEXT
  8
0
  6
BYBLOCK
 62
     0
 10
286.610883
 20
34.206524
 30
0.0
 40
0.075
  1
0.60
  7
ROMANC
 72
     1
 11
286.735883
 21
34.244024
 31
0.0
 73
     2
  0
POINT
  8
DEFPOINTS
  6
BYBLOCK
 62
     0
 10
287.035883
 20
34.666292
 30
0.0
  0
POINT
  8
DEFPOINTS
  6
BYBLOCK
 62
     0
 10
286.435883
 20
35.016292
 30
0.0
  0
POINT
  8
DEFPOINTS
  6
BYBLOCK
 62
     0
 10
286.435883
 20
34.169024
 30
0.0
  0
ENDBLK
  8
0
  0
BLOCK
  8
0
  2
*D8
 70
    65
 10
0.0
 20
0.0
 30
0.0
  3
*D
  0
LINE
  8
0
  6
BYBLOCK
 62
     0
 10
287.050883
 20
35.016292
 30
0.0
 11
288.75086
 21
35.016292
 31
0.0
  0
LINE
  8
0
  6
BYBLOCK
 62
     0
 10
287.050883
 20
34.666292
 30
0.0
 11
288.75086
 21
34.666292
 31
0.0
  0
LINE
  8
0
  6
BYBLOCK
 62
     0
 10
288.73586
 20
35.166292
 30
0.0
 11
288.73586
 21
35.316292
 31
0.0
  0
LINE
  8
0
  6
BYBLOCK
 62
     0
 10
288.73586
 20
34.516292
 30
0.0
 11
288.73586
 21
34.366292
 31
0.0
  0
SOLID
  8
0
  6
BYBLOCK
 62
     0
 10
288.71086
 20
35.166292
 30
0.0
 11
288.76086
 21
35.166292
 31
0.0
 12
288.73586
 22
35.016292
 32
0.0
 13
288.73586
 23
35.016292
 33
0.0
  0
SOLID
  8
0
  6
BYBLOCK
 62
     0
 10
288.71086
 20
34.516292
 30
0.0
 11
288.76086
 21
34.516292
 31
0.0
 12
288.73586
 22
34.666292
 32
0.0
 13
288.73586
 23
34.666292
 33
0.0
  0
LINE
  8
0
  6
BYBLOCK
 62
     0
 10
288.73586
 20
35.016292
 30
0.0
 11
288.73586
 21
34.666292
 31
0.0
  0
TEXT
  8
0
  6
BYBLOCK
 62
     0
 10
288.69836
 20
34.716292
 30
0.0
 40
0.075
  1
0.35
 50
90.0
  7
ROMANC
 72
     1
 11
288.66086
 21
34.841292
 31
0.0
 73
     2
  0
POINT
  8
DEFPOINTS
  6
BYBLOCK
 62
     0
 10
287.035883
 20
35.016292
 30
0.0
  0
POINT
  8
DEFPOINTS
  6
BYBLOCK
 62
     0
 10
287.035883
 20
34.666292
 30
0.0
  0
POINT
  8
DEFPOINTS
  6
BYBLOCK
 62
     0
 10
288.73586
 20
34.666292
 30
0.0
  0
ENDBLK
  8
0
  0
BLOCK
  8
0
  2
*D9
 70
    65
 10
0.0
 20
0.0
 30
0.0
  3
*D
  0
LINE
  8
0
  6
BYBLOCK
 62
     0
 10
288.350883
 20
35.016292
 30
0.0
 11
288.75086
 21
35.016292
 31
0.0
  0
LINE
  8
0
  6
BYBLOCK
 62
     0
 10
287.050883
 20
34.666292
 30
0.0
 11
288.75086
 21
34.666292
 31
0.0
  0
LINE
  8
0
  6
BYBLOCK
 62
     0
 10
288.73586
 20
35.166292
 30
0.0
 11
288.73586
 21
35.316292
 31
0.0
  0
LINE
  8
0
  6
BYBLOCK
 62
     0
 10
288.73586
 20
34.516292
 30
0.0
 11
288.73586
 21
34.366292
 31
0.0
  0
SOLID
  8
0
  6
BYBLOCK
 62
     0
 10
288.71086
 20
35.166292
 30
0.0
 11
288.76086
 21
35.166292
 31
0.0
 12
288.73586
 22
35.016292
 32
0.0
 13
288.73586
 23
35.016292
 33
0.0
  0
SOLID
  8
0
  6
BYBLOCK
 62
     0
 10
288.71086
 20
34.516292
 30
0.0
 11
288.76086
 21
34.516292
 31
0.0
 12
288.73586
 22
34.666292
 32
0.0
 13
288.73586
 23
34.666292
 33
0.0
  0
LINE
  8
0
  6
BYBLOCK
 62
     0
 10
288.73586
 20
35.016292
 30
0.0
 11
288.73586
 21
34.666292
 31
0.0
  0
TEXT
  8
0
  6
BYBLOCK
 62
     0
 10
288.69836
 20
34.716292
 30
0.0
 40
0.075
  1
0.35
 50
90.0
  7
ROMANC
 72
     1
 11
288.66086
 21
34.841292
 31
0.0
 73
     2
  0
POINT
  8
DEFPOINTS
  6
BYBLOCK
 62
     0
 10
288.335883
 20
35.016292
 30
0.0
  0
POINT
  8
DEFPOINTS
  6
BYBLOCK
 62
     0
 10
287.035883
 20
34.666292
 30
0.0
  0
POINT
  8
DEFPOINTS
  6
BYBLOCK
 62
     0
 10
288.73586
 20
34.666292
 30
0.0
  0
ENDBLK
  8
0
  0
BLOCK
  8
0
  2
*D10
 70
    65
 10
0.0
 20
0.0
 30
0.0
  3
*D
  0
LINE
  8
0
  6
BYBLOCK
 62
     0
 10
288.350883
 20
35.016292
 30
0.0
 11
288.75086
 21
35.016292
 31
0.0
  0
LINE
  8
0
  6
BYBLOCK
 62
     0
 10
288.350883
 20
34.666292
 30
0.0
 11
288.75086
 21
34.666292
 31
0.0
  0
LINE
  8
0
  6
BYBLOCK
 62
     0
 10
288.73586
 20
35.166292
 30
0.0
 11
288.73586
 21
35.316292
 31
0.0
  0
LINE
  8
0
  6
BYBLOCK
 62
     0
 10
288.73586
 20
34.516292
 30
0.0
 11
288.73586
 21
34.366292
 31
0.0
  0
SOLID
  8
0
  6
BYBLOCK
 62
     0
 10
288.71086
 20
35.166292
 30
0.0
 11
288.76086
 21
35.166292
 31
0.0
 12
288.73586
 22
35.016292
 32
0.0
 13
288.73586
 23
35.016292
 33
0.0
  0
SOLID
  8
0
  6
BYBLOCK
 62
     0
 10
288.71086
 20
34.516292
 30
0.0
 11
288.76086
 21
34.516292
 31
0.0
 12
288.73586
 22
34.666292
 32
0.0
 13
288.73586
 23
34.666292
 33
0.0
  0
LINE
  8
0
  6
BYBLOCK
 62
     0
 10
288.73586
 20
35.016292
 30
0.0
 11
288.73586
 21
34.666292
 31
0.0
  0
TEXT
  8
0
  6
BYBLOCK
 62
     0
 10
288.69836
 20
34.716292
 30
0.0
 40
0.075
  1
0.35
 50
90.0
  7
ROMANC
 72
     1
 11
288.66086
 21
34.841292
 31
0.0
 73
     2
  0
POINT
  8
DEFPOINTS
  6
BYBLOCK
 62
     0
 10
288.335883
 20
35.016292
 30
0.0
  0
POINT
  8
DEFPOINTS
  6
BYBLOCK
 62
     0
 10
288.335883
 20
34.666292
 30
0.0
  0
POINT
  8
DEFPOINTS
  6
BYBLOCK
 62
     0
 10
288.73586
 20
34.666292
 30
0.0
  0
ENDBLK
  8
0
  0
BLOCK
  8
0
  2
*D11
 70
    65
 10
0.0
 20
0.0
 30
0.0
  3
*D
  0
LINE
  8
0
  6
BYBLOCK
 62
     0
 10
288.350883
 20
34.666292
 30
0.0
 11
289.220398
 21
34.666292
 31
0.0
  0
LINE
  8
0
  6
BYBLOCK
 62
     0
 10
288.350883
 20
36.666292
 30
0.0
 11
289.220398
 21
36.666292
 31
0.0
  0
LINE
  8
0
  6
BYBLOCK
 62
     0
 10
289.205398
 20
34.816292
 30
0.0
 11
289.205398
 21
36.516292
 31
0.0
  0
SOLID
  8
0
  6
BYBLOCK
 62
     0
 10
289.180398
 20
34.816292
 30
0.0
 11
289.230398
 21
34.816292
 31
0.0
 12
289.205398
 22
34.666292
 32
0.0
 13
289.205398
 23
34.666292
 33
0.0
  0
SOLID
  8
0
  6
BYBLOCK
 62
     0
 10
289.180398
 20
36.516292
 30
0.0
 11
289.230398
 21
36.516292
 31
0.0
 12
289.205398
 22
36.666292
 32
0.0
 13
289.205398
 23
36.666292
 33
0.0
  0
TEXT
  8
0
  6
BYBLOCK
 62
     0
 10
289.167898
 20
35.541292
 30
0.0
 40
0.075
  1
2.00
 50
90.0
  7
ROMANC
 72
     1
 11
289.130398
 21
35.666292
 31
0.0
 73
     2
  0
POINT
  8
DEFPOINTS
  6
BYBLOCK
 62
     0
 10
288.335883
 20
34.666292
 30
0.0
  0
POINT
  8
DEFPOINTS
  6
BYBLOCK
 62
     0
 10
288.335883
 20
36.666292
 30
0.0
  0
POINT
  8
DEFPOINTS
  6
BYBLOCK
 62
     0
 10
289.205398
 20
36.666292
 30
0.0
  0
ENDBLK
  8
0
  0
BLOCK
  8
0
  2
*D12
 70
    65
 10
0.0
 20
0.0
 30
0.0
  3
*D
  0
LINE
  8
0
  6
BYBLOCK
 62
     0
 10
288.350883
 20
34.666292
 30
0.0
 11
289.052292
 21
34.666292
 31
0.0
  0
LINE
  8
0
  6
BYBLOCK
 62
     0
 10
288.350883
 20
36.666292
 30
0.0
 11
289.052292
 21
36.666292
 31
0.0
  0
LINE
  8
0
  6
BYBLOCK
 62
     0
 10
289.037292
 20
34.816292
 30
0.0
 11
289.037292
 21
36.516292
 31
0.0
  0
SOLID
  8
0
  6
BYBLOCK
 62
     0
 10
289.012292
 20
34.816292
 30
0.0
 11
289.062292
 21
34.816292
 31
0.0
 12
289.037292
 22
34.666292
 32
0.0
 13
289.037292
 23
34.666292
 33
0.0
  0
SOLID
  8
0
  6
BYBLOCK
 62
     0
 10
289.012292
 20
36.516292
 30
0.0
 11
289.062292
 21
36.516292
 31
0.0
 12
289.037292
 22
36.666292
 32
0.0
 13
289.037292
 23
36.666292
 33
0.0
  0
TEXT
  8
0
  6
BYBLOCK
 62
     0
 10
288.999792
 20
35.541292
 30
0.0
 40
0.075
  1
2.00
 50
90.0
  7
ROMANC
 72
     1
 11
288.962292
 21
35.666292
 31
0.0
 73
     2
  0
POINT
  8
DEFPOINTS
  6
BYBLOCK
 62
     0
 10
288.335883
 20
34.666292
 30
0.0
  0
POINT
  8
DEFPOINTS
  6
BYBLOCK
 62
     0
 10
288.335883
 20
36.666292
 30
0.0
  0
POINT
  8
DEFPOINTS
  6
BYBLOCK
 62
     0
 10
289.037292
 20
36.666292
 30
0.0
  0
ENDBLK
  8
0
  0
BLOCK
  8
0
  2
*D13
 70
    65
 10
0.0
 20
0.0
 30
0.0
  3
*D
  0
LINE
  8
0
  6
BYBLOCK
 62
     0
 10
286.542918
 20
34.666292
 30
0.0
 11
287.244326
 21
34.666292
 31
0.0
  0
LINE
  8
0
  6
BYBLOCK
 62
     0
 10
286.542918
 20
36.816292
 30
0.0
 11
287.244326
 21
36.816292
 31
0.0
  0
LINE
  8
0
  6
BYBLOCK
 62
     0
 10
287.229326
 20
34.816292
 30
0.0
 11
287.229326
 21
36.666292
 31
0.0
  0
SOLID
  8
0
  6
BYBLOCK
 62
     0
 10
287.204326
 20
34.816292
 30
0.0
 11
287.254326
 21
34.816292
 31
0.0
 12
287.229326
 22
34.666292
 32
0.0
 13
287.229326
 23
34.666292
 33
0.0
  0
SOLID
  8
0
  6
BYBLOCK
 62
     0
 10
287.204326
 20
36.666292
 30
0.0
 11
287.254326
 21
36.666292
 31
0.0
 12
287.229326
 22
36.816292
 32
0.0
 13
287.229326
 23
36.816292
 33
0.0
  0
TEXT
  8
0
  6
BYBLOCK
 62
     0
 10
287.191826
 20
35.616292
 30
0.0
 40
0.075
  1
2.15
 50
90.0
  7
ROMANC
 72
     1
 11
287.154326
 21
35.741292
 31
0.0
 73
     2
  0
POINT
  8
DEFPOINTS
  6
BYBLOCK
 62
     0
 10
286.527918
 20
34.666292
 30
0.0
  0
POINT
  8
DEFPOINTS
  6
BYBLOCK
 62
     0
 10
286.527918
 20
36.816292
 30
0.0
  0
POINT
  8
DEFPOINTS
  6
BYBLOCK
 62
     0
 10
287.229326
 20
36.816292
 30
0.0
  0
ENDBLK
  8
0
  0
BLOCK
  8
0
  2
*D18
 70
    65
 10
0.0
 20
0.0
 30
0.0
  3
*D
  0
LINE
  8
0
  6
BYBLOCK
 62
     0
 10
284.527918
 20
35.001292
 30
0.0
 11
284.527918
 21
33.748436
 31
0.0
  0
LINE
  8
0
  6
BYBLOCK
 62
     0
 10
286.527918
 20
34.651292
 30
0.0
 11
286.527918
 21
33.748436
 31
0.0
  0
LINE
  8
0
  6
BYBLOCK
 62
     0
 10
284.677918
 20
33.763436
 30
0.0
 11
286.377918
 21
33.763436
 31
0.0
  0
SOLID
  8
0
  6
BYBLOCK
 62
     0
 10
284.677918
 20
33.788436
 30
0.0
 11
284.677918
 21
33.738436
 31
0.0
 12
284.527918
 22
33.763436
 32
0.0
 13
284.527918
 23
33.763436
 33
0.0
  0
SOLID
  8
0
  6
BYBLOCK
 62
     0
 10
286.377918
 20
33.788436
 30
0.0
 11
286.377918
 21
33.738436
 31
0.0
 12
286.527918
 22
33.763436
 32
0.0
 13
286.527918
 23
33.763436
 33
0.0
  0
TEXT
  8
0
  6
BYBLOCK
 62
     0
 10
285.402918
 20
33.800936
 30
0.0
 40
0.075
  1
2.00
  7
ROMANC
 72
     1
 11
285.527918
 21
33.838436
 31
0.0
 73
     2
  0
POINT
  8
DEFPOINTS
  6
BYBLOCK
 62
     0
 10
284.527918
 20
35.016292
 30
0.0
  0
POINT
  8
DEFPOINTS
  6
BYBLOCK
 62
     0
 10
286.527918
 20
34.666292
 30
0.0
  0
POINT
  8
DEFPOINTS
  6
BYBLOCK
 62
     0
 10
286.527918
 20
33.763436
 30
0.0
  0
ENDBLK
  8
0
  0
BLOCK
  8
0
  2
*D19
 70
    65
 10
0.0
 20
0.0
 30
0.0
  3
*D
  0
LINE
  8
0
  6
BYBLOCK
 62
     0
 10
285.227918
 20
34.651292
 30
0.0
 11
285.227918
 21
34.154024
 31
0.0
  0
LINE
  8
0
  6
BYBLOCK
 62
     0
 10
284.527918
 20
35.001292
 30
0.0
 11
284.527918
 21
34.154024
 31
0.0
  0
LINE
  8
0
  6
BYBLOCK
 62
     0
 10
285.377918
 20
34.169024
 30
0.0
 11
285.527918
 21
34.169024
 31
0.0
  0
LINE
  8
0
  6
BYBLOCK
 62
     0
 10
284.377918
 20
34.169024
 30
0.0
 11
284.227918
 21
34.169024
 31
0.0
  0
SOLID
  8
0
  6
BYBLOCK
 62
     0
 10
285.377918
 20
34.194024
 30
0.0
 11
285.377918
 21
34.144024
 31
0.0
 12
285.227918
 22
34.169024
 32
0.0
 13
285.227918
 23
34.169024
 33
0.0
  0
SOLID
  8
0
  6
BYBLOCK
 62
     0
 10
284.377918
 20
34.194024
 30
0.0
 11
284.377918
 21
34.144024
 31
0.0
 12
284.527918
 22
34.169024
 32
0.0
 13
284.527918
 23
34.169024
 33
0.0
  0
LINE
  8
0
  6
BYBLOCK
 62
     0
 10
285.227918
 20
34.169024
 30
0.0
 11
284.527918
 21
34.169024
 31
0.0
  0
TEXT
  8
0
  6
BYBLOCK
 62
     0
 10
284.752918
 20
34.206524
 30
0.0
 40
0.075
  1
0.70
  7
ROMANC
 72
     1
 11
284.877918
 21
34.244024
 31
0.0
 73
     2
  0
POINT
  8
DEFPOINTS
  6
BYBLOCK
 62
     0
 10
285.227918
 20
34.666292
 30
0.0
  0
POINT
  8
DEFPOINTS
  6
BYBLOCK
 62
     0
 10
284.527918
 20
35.016292
 30
0.0
  0
POINT
  8
DEFPOINTS
  6
BYBLOCK
 62
     0
 10
284.527918
 20
34.169024
 30
0.0
  0
ENDBLK
  8
0
  0
BLOCK
  8
0
  2
*D23
 70
    65
 10
0.0
 20
0.0
 30
0.0
  3
*D
  0
LINE
  8
0
  6
BYBLOCK
 62
     0
 10
285.127918
 20
34.651292
 30
0.0
 11
285.127918
 21
34.154024
 31
0.0
  0
LINE
  8
0
  6
BYBLOCK
 62
     0
 10
284.527918
 20
35.001292
 30
0.0
 11
284.527918
 21
34.154024
 31
0.0
  0
LINE
  8
0
  6
BYBLOCK
 62
     0
 10
285.277918
 20
34.169024
 30
0.0
 11
285.427918
 21
34.169024
 31
0.0
  0
LINE
  8
0
  6
BYBLOCK
 62
     0
 10
284.377918
 20
34.169024
 30
0.0
 11
284.227918
 21
34.169024
 31
0.0
  0
SOLID
  8
0
  6
BYBLOCK
 62
     0
 10
285.277918
 20
34.194024
 30
0.0
 11
285.277918
 21
34.144024
 31
0.0
 12
285.127918
 22
34.169024
 32
0.0
 13
285.127918
 23
34.169024
 33
0.0
  0
SOLID
  8
0
  6
BYBLOCK
 62
     0
 10
284.377918
 20
34.194024
 30
0.0
 11
284.377918
 21
34.144024
 31
0.0
 12
284.527918
 22
34.169024
 32
0.0
 13
284.527918
 23
34.169024
 33
0.0
  0
LINE
  8
0
  6
BYBLOCK
 62
     0
 10
285.127918
 20
34.169024
 30
0.0
 11
284.527918
 21
34.169024
 31
0.0
  0
TEXT
  8
0
  6
BYBLOCK
 62
     0
 10
284.702918
 20
34.206524
 30
0.0
 40
0.075
  1
0.60
  7
ROMANC
 72
     1
 11
284.827918
 21
34.244024
 31
0.0
 73
     2
  0
POINT
  8
DEFPOINTS
  6
BYBLOCK
 62
     0
 10
285.127918
 20
34.666292
 30
0.0
  0
POINT
  8
DEFPOINTS
  6
BYBLOCK
 62
     0
 10
284.527918
 20
35.016292
 30
0.0
  0
POINT
  8
DEFPOINTS
  6
BYBLOCK
 62
     0
 10
284.527918
 20
34.169024
 30
0.0
  0
ENDBLK
  8
0
  0
BLOCK
  8
0
  2
*D24
 70
    65
 10
0.0
 20
0.0
 30
0.0
  3
*D
  0
LINE
  8
0
  6
BYBLOCK
 62
     0
 10
284.527918
 20
35.001292
 30
0.0
 11
284.527918
 21
33.748436
 31
0.0
  0
LINE
  8
0
  6
BYBLOCK
 62
     0
 10
286.527918
 20
34.651292
 30
0.0
 11
286.527918
 21
33.748436
 31
0.0
  0
LINE
  8
0
  6
BYBLOCK
 62
     0
 10
284.677918
 20
33.763436
 30
0.0
 11
286.377918
 21
33.763436
 31
0.0
  0
SOLID
  8
0
  6
BYBLOCK
 62
     0
 10
284.677918
 20
33.788436
 30
0.0
 11
284.677918
 21
33.738436
 31
0.0
 12
284.527918
 22
33.763436
 32
0.0
 13
284.527918
 23
33.763436
 33
0.0
  0
SOLID
  8
0
  6
BYBLOCK
 62
     0
 10
286.377918
 20
33.788436
 30
0.0
 11
286.377918
 21
33.738436
 31
0.0
 12
286.527918
 22
33.763436
 32
0.0
 13
286.527918
 23
33.763436
 33
0.0
  0
TEXT
  8
0
  6
BYBLOCK
 62
     0
 10
285.302918
 20
33.800936
 30
0.0
 40
0.075
  1
2.00
  7
ROMANC
 72
     1
 11
285.427918
 21
33.838436
 31
0.0
 73
     2
  0
POINT
  8
DEFPOINTS
  6
BYBLOCK
 62
     0
 10
284.527918
 20
35.016292
 30
0.0
  0
POINT
  8
DEFPOINTS
  6
BYBLOCK
 62
     0
 10
286.527918
 20
34.666292
 30
0.0
  0
POINT
  8
DEFPOINTS
  6
BYBLOCK
 62
     0
 10
286.527918
 20
33.763436
 30
0.0
  0
ENDBLK
  8
0
  0
BLOCK
  8
0
  2
*D25
 70
    65
 10
0.0
 20
0.0
 30
0.0
  3
*D
  0
LINE
  8
0
  6
BYBLOCK
 62
     0
 10
285.127918
 20
34.651292
 30
0.0
 11
285.127918
 21
34.154024
 31
0.0
  0
LINE
  8
0
  6
BYBLOCK
 62
     0
 10
286.527918
 20
34.651292
 30
0.0
 11
286.527918
 21
34.154024
 31
0.0
  0
LINE
  8
0
  6
BYBLOCK
 62
     0
 10
285.277918
 20
34.169024
 30
0.0
 11
286.377918
 21
34.169024
 31
0.0
  0
SOLID
  8
0
  6
BYBLOCK
 62
     0
 10
285.277918
 20
34.194024
 30
0.0
 11
285.277918
 21
34.144024
 31
0.0
 12
285.127918
 22
34.169024
 32
0.0
 13
285.127918
 23
34.169024
 33
0.0
  0
SOLID
  8
0
  6
BYBLOCK
 62
     0
 10
286.377918
 20
34.194024
 30
0.0
 11
286.377918
 21
34.144024
 31
0.0
 12
286.527918
 22
34.169024
 32
0.0
 13
286.527918
 23
34.169024
 33
0.0
  0
TEXT
  8
0
  6
BYBLOCK
 62
     0
 10
285.697561
 20
34.206524
 30
0.0
 40
0.075
  1
1.40
  7
ROMANC
 72
     1
 11
285.827918
 21
34.244024
 31
0.0
 73
     2
  0
POINT
  8
DEFPOINTS
  6
BYBLOCK
 62
     0
 10
285.127918
 20
34.666292
 30
0.0
  0
POINT
  8
DEFPOINTS
  6
BYBLOCK
 62
     0
 10
286.527918
 20
34.666292
 30
0.0
  0
POINT
  8
DEFPOINTS
  6
BYBLOCK
 62
     0
 10
286.527918
 20
34.169024
 30
0.0
  0
ENDBLK
  8
0
  0
BLOCK
  8
0
  2
*D26
 70
    65
 10
0.0
 20
0.0
 30
0.0
  3
*D
  0
LINE
  8
0
  6
BYBLOCK
 62
     0
 10
286.542918
 20
34.666292
 30
0.0
 11
287.244326
 21
34.666292
 31
0.0
  0
LINE
  8
0
  6
BYBLOCK
 62
     0
 10
286.542918
 20
36.666292
 30
0.0
 11
287.244326
 21
36.666292
 31
0.0
  0
LINE
  8
0
  6
BYBLOCK
 62
     0
 10
287.229326
 20
34.816292
 30
0.0
 11
287.229326
 21
36.516292
 31
0.0
  0
SOLID
  8
0
  6
BYBLOCK
 62
     0
 10
287.204326
 20
34.816292
 30
0.0
 11
287.254326
 21
34.816292
 31
0.0
 12
287.229326
 22
34.666292
 32
0.0
 13
287.229326
 23
34.666292
 33
0.0
  0
SOLID
  8
0
  6
BYBLOCK
 62
     0
 10
287.204326
 20
36.516292
 30
0.0
 11
287.254326
 21
36.516292
 31
0.0
 12
287.229326
 22
36.666292
 32
0.0
 13
287.229326
 23
36.666292
 33
0.0
  0
TEXT
  8
0
  6
BYBLOCK
 62
     0
 10
287.191826
 20
35.541292
 30
0.0
 40
0.075
  1
2.00
 50
90.0
  7
ROMANC
 72
     1
 11
287.154326
 21
35.666292
 31
0.0
 73
     2
  0
POINT
  8
DEFPOINTS
  6
BYBLOCK
 62
     0
 10
286.527918
 20
34.666292
 30
0.0
  0
POINT
  8
DEFPOINTS
  6
BYBLOCK
 62
     0
 10
286.527918
 20
36.666292
 30
0.0
  0
POINT
  8
DEFPOINTS
  6
BYBLOCK
 62
     0
 10
287.229326
 20
36.666292
 30
0.0
  0
ENDBLK
  8
0
  0
BLOCK
  8
0
  2
*D27
 70
    65
 10
0.0
 20
0.0
 30
0.0
  3
*D
  0
LINE
  8
0
  6
BYBLOCK
 62
     0
 10
283.827918
 20
35.001292
 30
0.0
 11
283.827918
 21
33.748436
 31
0.0
  0
LINE
  8
0
  6
BYBLOCK
 62
     0
 10
286.527918
 20
34.651292
 30
0.0
 11
286.527918
 21
33.748436
 31
0.0
  0
LINE
  8
0
  6
BYBLOCK
 62
     0
 10
283.977918
 20
33.763436
 30
0.0
 11
286.377918
 21
33.763436
 31
0.0
  0
SOLID
  8
0
  6
BYBLOCK
 62
     0
 10
283.977918
 20
33.788436
 30
0.0
 11
283.977918
 21
33.738436
 31
0.0
 12
283.827918
 22
33.763436
 32
0.0
 13
283.827918
 23
33.763436
 33
0.0
  0
SOLID
  8
0
  6
BYBLOCK
 62
     0
 10
286.377918
 20
33.788436
 30
0.0
 11
286.377918
 21
33.738436
 31
0.0
 12
286.527918
 22
33.763436
 32
0.0
 13
286.527918
 23
33.763436
 33
0.0
  0
TEXT
  8
0
  6
BYBLOCK
 62
     0
 10
284.602918
 20
33.800936
 30
0.0
 40
0.075
  1
2.70
  7
ROMANC
 72
     1
 11
284.727918
 21
33.838436
 31
0.0
 73
     2
  0
POINT
  8
DEFPOINTS
  6
BYBLOCK
 62
     0
 10
283.827918
 20
35.016292
 30
0.0
  0
POINT
  8
DEFPOINTS
  6
BYBLOCK
 62
     0
 10
286.527918
 20
34.666292
 30
0.0
  0
POINT
  8
DEFPOINTS
  6
BYBLOCK
 62
     0
 10
286.527918
 20
33.763436
 30
0.0
  0
ENDBLK
  8
0
  0
BLOCK
  8
0
  2
*D28
 70
    65
 10
0.0
 20
0.0
 30
0.0
  3
*D
  0
LINE
  8
0
  6
BYBLOCK
 62
     0
 10
284.427918
 20
34.651292
 30
0.0
 11
284.427918
 21
34.154024
 31
0.0
  0
LINE
  8
0
  6
BYBLOCK
 62
     0
 10
286.527918
 20
34.651292
 30
0.0
 11
286.527918
 21
34.154024
 31
0.0
  0
LINE
  8
0
  6
BYBLOCK
 62
     0
 10
284.577918
 20
34.169024
 30
0.0
 11
286.377918
 21
34.169024
 31
0.0
  0
SOLID
  8
0
  6
BYBLOCK
 62
     0
 10
284.577918
 20
34.194024
 30
0.0
 11
284.577918
 21
34.144024
 31
0.0
 12
284.427918
 22
34.169024
 32
0.0
 13
284.427918
 23
34.169024
 33
0.0
  0
SOLID
  8
0
  6
BYBLOCK
 62
     0
 10
286.377918
 20
34.194024
 30
0.0
 11
286.377918
 21
34.144024
 31
0.0
 12
286.527918
 22
34.169024
 32
0.0
 13
286.527918
 23
34.169024
 33
0.0
  0
TEXT
  8
0
  6
BYBLOCK
 62
     0
 10
285.352918
 20
34.206524
 30
0.0
 40
0.075
  1
2.10
  7
ROMANC
 72
     1
 11
285.477918
 21
34.244024
 31
0.0
 73
     2
  0
POINT
  8
DEFPOINTS
  6
BYBLOCK
 62
     0
 10
284.427918
 20
34.666292
 30
0.0
  0
POINT
  8
DEFPOINTS
  6
BYBLOCK
 62
     0
 10
286.527918
 20
34.666292
 30
0.0
  0
POINT
  8
DEFPOINTS
  6
BYBLOCK
 62
     0
 10
286.527918
 20
34.169024
 30
0.0
  0
ENDBLK
  8
0
  0
BLOCK
  8
0
  2
*D29
 70
    65
 10
0.0
 20
0.0
 30
0.0
  3
*D
  0
LINE
  8
0
  6
BYBLOCK
 62
     0
 10
283.827918
 20
35.001292
 30
0.0
 11
283.827918
 21
33.748436
 31
0.0
  0
LINE
  8
0
  6
BYBLOCK
 62
     0
 10
286.527918
 20
34.651292
 30
0.0
 11
286.527918
 21
33.748436
 31
0.0
  0
LINE
  8
0
  6
BYBLOCK
 62
     0
 10
283.977918
 20
33.763436
 30
0.0
 11
286.377918
 21
33.763436
 31
0.0
  0
SOLID
  8
0
  6
BYBLOCK
 62
     0
 10
283.977918
 20
33.788436
 30
0.0
 11
283.977918
 21
33.738436
 31
0.0
 12
283.827918
 22
33.763436
 32
0.0
 13
283.827918
 23
33.763436
 33
0.0
  0
SOLID
  8
0
  6
BYBLOCK
 62
     0
 10
286.377918
 20
33.788436
 30
0.0
 11
286.377918
 21
33.738436
 31
0.0
 12
286.527918
 22
33.763436
 32
0.0
 13
286.527918
 23
33.763436
 33
0.0
  0
TEXT
  8
0
  6
BYBLOCK
 62
     0
 10
285.016452
 20
33.800936
 30
0.0
 40
0.075
  1
2.70
  7
ROMANC
 72
     1
 11
285.141452
 21
33.838436
 31
0.0
 73
     2
  0
POINT
  8
DEFPOINTS
  6
BYBLOCK
 62
     0
 10
283.827918
 20
35.016292
 30
0.0
  0
POINT
  8
DEFPOINTS
  6
BYBLOCK
 62
     0
 10
286.527918
 20
34.666292
 30
0.0
  0
POINT
  8
DEFPOINTS
  6
BYBLOCK
 62
     0
 10
286.527918
 20
33.763436
 30
0.0
  0
ENDBLK
  8
0
  0
BLOCK
  8
0
  2
*D33
 70
    65
 10
0.0
 20
0.0
 30
0.0
  3
*D
  0
LINE
  8
0
  6
BYBLOCK
 62
     0
 10
284.220954
 20
34.951292
 30
0.0
 11
284.220954
 21
33.748436
 31
0.0
  0
LINE
  8
0
  6
BYBLOCK
 62
     0
 10
286.920954
 20
34.651292
 30
0.0
 11
286.920954
 21
33.748436
 31
0.0
  0
LINE
  8
0
  6
BYBLOCK
 62
     0
 10
284.370954
 20
33.763436
 30
0.0
 11
286.770954
 21
33.763436
 31
0.0
  0
SOLID
  8
0
  6
BYBLOCK
 62
     0
 10
284.370954
 20
33.788436
 30
0.0
 11
284.370954
 21
33.738436
 31
0.0
 12
284.220954
 22
33.763436
 32
0.0
 13
284.220954
 23
33.763436
 33
0.0
  0
SOLID
  8
0
  6
BYBLOCK
 62
     0
 10
286.770954
 20
33.788436
 30
0.0
 11
286.770954
 21
33.738436
 31
0.0
 12
286.920954
 22
33.763436
 32
0.0
 13
286.920954
 23
33.763436
 33
0.0
  0
TEXT
  8
0
  6
BYBLOCK
 62
     0
 10
285.409488
 20
33.800936
 30
0.0
 40
0.075
  1
2.70
  7
ROMANC
 72
     1
 11
285.534488
 21
33.838436
 31
0.0
 73
     2
  0
POINT
  8
DEFPOINTS
  6
BYBLOCK
 62
     0
 10
284.220954
 20
34.966292
 30
0.0
  0
POINT
  8
DEFPOINTS
  6
BYBLOCK
 62
     0
 10
286.920954
 20
34.666292
 30
0.0
  0
POINT
  8
DEFPOINTS
  6
BYBLOCK
 62
     0
 10
286.920954
 20
33.763436
 30
0.0
  0
ENDBLK
  8
0
  0
BLOCK
  8
0
  2
*D34
 70
    65
 10
0.0
 20
0.0
 30
0.0
  3
*D
  0
LINE
  8
0
  6
BYBLOCK
 62
     0
 10
284.820954
 20
34.651292
 30
0.0
 11
284.820954
 21
34.154024
 31
0.0
  0
LINE
  8
0
  6
BYBLOCK
 62
     0
 10
284.220954
 20
34.951292
 30
0.0
 11
284.220954
 21
34.154024
 31
0.0
  0
LINE
  8
0
  6
BYBLOCK
 62
     0
 10
284.970954
 20
34.169024
 30
0.0
 11
285.120954
 21
34.169024
 31
0.0
  0
LINE
  8
0
  6
BYBLOCK
 62
     0
 10
284.070954
 20
34.169024
 30
0.0
 11
283.920954
 21
34.169024
 31
0.0
  0
SOLID
  8
0
  6
BYBLOCK
 62
     0
 10
284.970954
 20
34.194024
 30
0.0
 11
284.970954
 21
34.144024
 31
0.0
 12
284.820954
 22
34.169024
 32
0.0
 13
284.820954
 23
34.169024
 33
0.0
  0
SOLID
  8
0
  6
BYBLOCK
 62
     0
 10
284.070954
 20
34.194024
 30
0.0
 11
284.070954
 21
34.144024
 31
0.0
 12
284.220954
 22
34.169024
 32
0.0
 13
284.220954
 23
34.169024
 33
0.0
  0
LINE
  8
0
  6
BYBLOCK
 62
     0
 10
284.820954
 20
34.169024
 30
0.0
 11
284.220954
 21
34.169024
 31
0.0
  0
TEXT
  8
0
  6
BYBLOCK
 62
     0
 10
284.395954
 20
34.206524
 30
0.0
 40
0.075
  1
0.60
  7
ROMANC
 72
     1
 11
284.520954
 21
34.244024
 31
0.0
 73
     2
  0
POINT
  8
DEFPOINTS
  6
BYBLOCK
 62
     0
 10
284.820954
 20
34.666292
 30
0.0
  0
POINT
  8
DEFPOINTS
  6
BYBLOCK
 62
     0
 10
284.220954
 20
34.966292
 30
0.0
  0
POINT
  8
DEFPOINTS
  6
BYBLOCK
 62
     0
 10
284.220954
 20
34.169024
 30
0.0
  0
ENDBLK
  8
0
  0
BLOCK
  8
0
  2
*D35
 70
    65
 10
0.0
 20
0.0
 30
0.0
  3
*D
  0
LINE
  8
0
  6
BYBLOCK
 62
     0
 10
286.935954
 20
34.966292
 30
0.0
 11
287.33593
 21
34.966292
 31
0.0
  0
LINE
  8
0
  6
BYBLOCK
 62
     0
 10
286.935954
 20
34.666292
 30
0.0
 11
287.33593
 21
34.666292
 31
0.0
  0
LINE
  8
0
  6
BYBLOCK
 62
     0
 10
287.32093
 20
35.116292
 30
0.0
 11
287.32093
 21
35.266292
 31
0.0
  0
LINE
  8
0
  6
BYBLOCK
 62
     0
 10
287.32093
 20
34.516292
 30
0.0
 11
287.32093
 21
34.366292
 31
0.0
  0
SOLID
  8
0
  6
BYBLOCK
 62
     0
 10
287.29593
 20
35.116292
 30
0.0
 11
287.34593
 21
35.116292
 31
0.0
 12
287.32093
 22
34.966292
 32
0.0
 13
287.32093
 23
34.966292
 33
0.0
  0
SOLID
  8
0
  6
BYBLOCK
 62
     0
 10
287.29593
 20
34.516292
 30
0.0
 11
287.34593
 21
34.516292
 31
0.0
 12
287.32093
 22
34.666292
 32
0.0
 13
287.32093
 23
34.666292
 33
0.0
  0
LINE
  8
0
  6
BYBLOCK
 62
     0
 10
287.32093
 20
34.966292
 30
0.0
 11
287.32093
 21
34.666292
 31
0.0
  0
TEXT
  8
0
  6
BYBLOCK
 62
     0
 10
287.28343
 20
34.691292
 30
0.0
 40
0.075
  1
0.35
 50
90.0
  7
ROMANC
 72
     1
 11
287.24593
 21
34.816292
 31
0.0
 73
     2
  0
POINT
  8
DEFPOINTS
  6
BYBLOCK
 62
     0
 10
286.920954
 20
34.966292
 30
0.0
  0
POINT
  8
DEFPOINTS
  6
BYBLOCK
 62
     0
 10
286.920954
 20
34.666292
 30
0.0
  0
POINT
  8
DEFPOINTS
  6
BYBLOCK
 62
     0
 10
287.32093
 20
34.666292
 30
0.0
  0
ENDBLK
  8
0
  0
BLOCK
  8
0
  2
*D36
 70
    65
 10
0.0
 20
0.0
 30
0.0
  3
*D
  0
LINE
  8
0
  6
BYBLOCK
 62
     0
 10
284.805954
 20
34.966292
 30
0.0
 11
283.748805
 21
34.966292
 31
0.0
  0
LINE
  8
0
  6
BYBLOCK
 62
     0
 10
284.805954
 20
34.666292
 30
0.0
 11
283.748805
 21
34.666292
 31
0.0
  0
LINE
  8
0
  6
BYBLOCK
 62
     0
 10
283.763805
 20
35.116292
 30
0.0
 11
283.763805
 21
35.266292
 31
0.0
  0
LINE
  8
0
  6
BYBLOCK
 62
     0
 10
283.763805
 20
34.516292
 30
0.0
 11
283.763805
 21
34.366292
 31
0.0
  0
SOLID
  8
0
  6
BYBLOCK
 62
     0
 10
283.738805
 20
35.116292
 30
0.0
 11
283.788805
 21
35.116292
 31
0.0
 12
283.763805
 22
34.966292
 32
0.0
 13
283.763805
 23
34.966292
 33
0.0
  0
SOLID
  8
0
  6
BYBLOCK
 62
     0
 10
283.738805
 20
34.516292
 30
0.0
 11
283.788805
 21
34.516292
 31
0.0
 12
283.763805
 22
34.666292
 32
0.0
 13
283.763805
 23
34.666292
 33
0.0
  0
LINE
  8
0
  6
BYBLOCK
 62
     0
 10
283.763805
 20
34.966292
 30
0.0
 11
283.763805
 21
34.666292
 31
0.0
  0
TEXT
  8
0
  6
BYBLOCK
 62
     0
 10
283.726305
 20
34.691292
 30
0.0
 40
0.075
  1
0.30
 50
90.0
  7
ROMANC
 72
     1
 11
283.688805
 21
34.816292
 31
0.0
 73
     2
  0
POINT
  8
DEFPOINTS
  6
BYBLOCK
 62
     0
 10
284.820954
 20
34.966292
 30
0.0
  0
POINT
  8
DEFPOINTS
  6
BYBLOCK
 62
     0
 10
284.820954
 20
34.666292
 30
0.0
  0
POINT
  8
DEFPOINTS
  6
BYBLOCK
 62
     0
 10
283.763805
 20
34.666292
 30
0.0
  0
ENDBLK
  8
0
  0
BLOCK
  8
0
  2
*D37
 70
    65
 10
0.0
 20
0.0
 30
0.0
  3
*D
  0
LINE
  8
0
  6
BYBLOCK
 62
     0
 10
284.805954
 20
34.966292
 30
0.0
 11
283.891904
 21
34.966292
 31
0.0
  0
LINE
  8
0
  6
BYBLOCK
 62
     0
 10
284.805954
 20
34.666292
 30
0.0
 11
283.891904
 21
34.666292
 31
0.0
  0
LINE
  8
0
  6
BYBLOCK
 62
     0
 10
283.906904
 20
35.116292
 30
0.0
 11
283.906904
 21
35.266292
 31
0.0
  0
LINE
  8
0
  6
BYBLOCK
 62
     0
 10
283.906904
 20
34.516292
 30
0.0
 11
283.906904
 21
34.366292
 31
0.0
  0
SOLID
  8
0
  6
BYBLOCK
 62
     0
 10
283.881904
 20
35.116292
 30
0.0
 11
283.931904
 21
35.116292
 31
0.0
 12
283.906904
 22
34.966292
 32
0.0
 13
283.906904
 23
34.966292
 33
0.0
  0
SOLID
  8
0
  6
BYBLOCK
 62
     0
 10
283.881904
 20
34.516292
 30
0.0
 11
283.931904
 21
34.516292
 31
0.0
 12
283.906904
 22
34.666292
 32
0.0
 13
283.906904
 23
34.666292
 33
0.0
  0
LINE
  8
0
  6
BYBLOCK
 62
     0
 10
283.906904
 20
34.966292
 30
0.0
 11
283.906904
 21
34.666292
 31
0.0
  0
TEXT
  8
0
  6
BYBLOCK
 62
     0
 10
283.869404
 20
34.691292
 30
0.0
 40
0.075
  1
0.30
 50
90.0
  7
ROMANC
 72
     1
 11
283.831904
 21
34.816292
 31
0.0
 73
     2
  0
POINT
  8
DEFPOINTS
  6
BYBLOCK
 62
     0
 10
284.820954
 20
34.966292
 30
0.0
  0
POINT
  8
DEFPOINTS
  6
BYBLOCK
 62
     0
 10
284.820954
 20
34.666292
 30
0.0
  0
POINT
  8
DEFPOINTS
  6
BYBLOCK
 62
     0
 10
283.906904
 20
34.666292
 30
0.0
  0
ENDBLK
  8
0
  0
BLOCK
  8
0
  2
*D38
 70
    65
 10
0.0
 20
0.0
 30
0.0
  3
*D
  0
LINE
  8
0
  6
BYBLOCK
 62
     0
 10
284.790954
 20
34.666292
 30
0.0
 11
283.524616
 21
34.666292
 31
0.0
  0
LINE
  8
0
  6
BYBLOCK
 62
     0
 10
284.205954
 20
36.666292
 30
0.0
 11
283.524616
 21
36.666292
 31
0.0
  0
LINE
  8
0
  6
BYBLOCK
 62
     0
 10
283.539616
 20
34.816292
 30
0.0
 11
283.539616
 21
36.516292
 31
0.0
  0
SOLID
  8
0
  6
BYBLOCK
 62
     0
 10
283.514616
 20
34.816292
 30
0.0
 11
283.564616
 21
34.816292
 31
0.0
 12
283.539616
 22
34.666292
 32
0.0
 13
283.539616
 23
34.666292
 33
0.0
  0
SOLID
  8
0
  6
BYBLOCK
 62
     0
 10
283.514616
 20
36.516292
 30
0.0
 11
283.564616
 21
36.516292
 31
0.0
 12
283.539616
 22
36.666292
 32
0.0
 13
283.539616
 23
36.666292
 33
0.0
  0
TEXT
  8
0
  6
BYBLOCK
 62
     0
 10
283.502116
 20
35.541292
 30
0.0
 40
0.075
  1
2.00
 50
90.0
  7
ROMANC
 72
     1
 11
283.464616
 21
35.666292
 31
0.0
 73
     2
  0
POINT
  8
DEFPOINTS
  6
BYBLOCK
 62
     0
 10
284.805954
 20
34.666292
 30
0.0
  0
POINT
  8
DEFPOINTS
  6
BYBLOCK
 62
     0
 10
284.220954
 20
36.666292
 30
0.0
  0
POINT
  8
DEFPOINTS
  6
BYBLOCK
 62
     0
 10
283.539616
 20
36.666292
 30
0.0
  0
ENDBLK
  8
0
  0
BLOCK
  8
0
  2
*D39
 70
    65
 10
0.0
 20
0.0
 30
0.0
  3
*D
  0
LINE
  8
0
  6
BYBLOCK
 62
     0
 10
284.220954
 20
34.951292
 30
0.0
 11
284.220954
 21
33.748436
 31
0.0
  0
LINE
  8
0
  6
BYBLOCK
 62
     0
 10
286.770954
 20
34.651292
 30
0.0
 11
286.770954
 21
33.748436
 31
0.0
  0
LINE
  8
0
  6
BYBLOCK
 62
     0
 10
284.370954
 20
33.763436
 30
0.0
 11
286.620954
 21
33.763436
 31
0.0
  0
SOLID
  8
0
  6
BYBLOCK
 62
     0
 10
284.370954
 20
33.788436
 30
0.0
 11
284.370954
 21
33.738436
 31
0.0
 12
284.220954
 22
33.763436
 32
0.0
 13
284.220954
 23
33.763436
 33
0.0
  0
SOLID
  8
0
  6
BYBLOCK
 62
     0
 10
286.620954
 20
33.788436
 30
0.0
 11
286.620954
 21
33.738436
 31
0.0
 12
286.770954
 22
33.763436
 32
0.0
 13
286.770954
 23
33.763436
 33
0.0
  0
TEXT
  8
0
  6
BYBLOCK
 62
     0
 10
285.409488
 20
33.800936
 30
0.0
 40
0.075
  1
2.55
  7
ROMANC
 72
     1
 11
285.534488
 21
33.838436
 31
0.0
 73
     2
  0
POINT
  8
DEFPOINTS
  6
BYBLOCK
 62
     0
 10
284.220954
 20
34.966292
 30
0.0
  0
POINT
  8
DEFPOINTS
  6
BYBLOCK
 62
     0
 10
286.770954
 20
34.666292
 30
0.0
  0
POINT
  8
DEFPOINTS
  6
BYBLOCK
 62
     0
 10
286.770954
 20
33.763436
 30
0.0
  0
ENDBLK
  8
0
  0
BLOCK
  8
0
  2
*D40
 70
    65
 10
0.0
 20
0.0
 30
0.0
  3
*D
  0
LINE
  8
0
  6
BYBLOCK
 62
     0
 10
284.820954
 20
34.651292
 30
0.0
 11
284.820954
 21
34.154024
 31
0.0
  0
LINE
  8
0
  6
BYBLOCK
 62
     0
 10
286.770954
 20
34.651292
 30
0.0
 11
286.770954
 21
34.154024
 31
0.0
  0
LINE
  8
0
  6
BYBLOCK
 62
     0
 10
284.970954
 20
34.169024
 30
0.0
 11
286.620954
 21
34.169024
 31
0.0
  0
SOLID
  8
0
  6
BYBLOCK
 62
     0
 10
284.970954
 20
34.194024
 30
0.0
 11
284.970954
 21
34.144024
 31
0.0
 12
284.820954
 22
34.169024
 32
0.0
 13
284.820954
 23
34.169024
 33
0.0
  0
SOLID
  8
0
  6
BYBLOCK
 62
     0
 10
286.620954
 20
34.194024
 30
0.0
 11
286.620954
 21
34.144024
 31
0.0
 12
286.770954
 22
34.169024
 32
0.0
 13
286.770954
 23
34.169024
 33
0.0
  0
TEXT
  8
0
  6
BYBLOCK
 62
     0
 10
285.665597
 20
34.206524
 30
0.0
 40
0.075
  1
1.95
  7
ROMANC
 72
     1
 11
285.795954
 21
34.244024
 31
0.0
 73
     2
  0
POINT
  8
DEFPOINTS
  6
BYBLOCK
 62
     0
 10
284.820954
 20
34.666292
 30
0.0
  0
POINT
  8
DEFPOINTS
  6
BYBLOCK
 62
     0
 10
286.770954
 20
34.666292
 30
0.0
  0
POINT
  8
DEFPOINTS
  6
BYBLOCK
 62
     0
 10
286.770954
 20
34.169024
 30
0.0
  0
ENDBLK
  8
0
  0
ENDSEC
  0
SECTION
  2
ENTITIES
  0
LINE
  8
0
 10
291.895795
 20
29.897444
 30
0.0
 11
291.895795
 21
44.747444
 31
0.0
  0
TEXT
  8
0
 10
283.887846
 20
40.56142
 30
0.0
 40
0.3
  1
P = 91 dm
  7
ROMANC
  0
LINE
  8
0
 10
281.395795
 20
44.747444
 30
0.0
 11
281.395795
 21
29.897444
 31
0.0
  0
LINE
  8
0
 10
281.395795
 20
29.897444
 30
0.0
 11
291.895795
 21
29.897444
 31
0.0
  0
LINE
  8
0
 10
291.895795
 20
44.747444
 30
0.0
 11
281.395795
 21
44.747444
 31
0.0
  0
TEXT
  8
0
 10
287.122271
 20
41.564915
 30
0.0
 40
0.1
  1
2
  7
ROMANC
  0
TEXT
  8
0
 10
283.925768
 20
41.857589
 30
0.0
 40
0.3
  1
ESCALA  1:50
  7
ROMANC
  0
TEXT
  8
0
 10
283.925768
 20
42.343303
 30
0.0
 40
0.3
  1
TIPUS   NT492
  7
ROMANC
  0
TEXT
  8
0
 10
283.938862
 20
41.258999
 30
0.0
 40
0.3
  1
S = 492 dm
  7
ROMANC
  0
LINE
  8
0
  6
BYBLOCK
 62
     0
 10
285.282249
 20
34.666292
 30
0.0
 11
284.015911
 21
34.666292
 31
0.0
  0
LINE
  8
0
  6
BYBLOCK
 62
     0
 10
284.697249
 20
36.666292
 30
0.0
 11
284.015911
 21
36.666292
 31
0.0
  0
LINE
  8
0
  6
BYBLOCK
 62
     0
 10
284.030911
 20
34.816292
 30
0.0
 11
284.030911
 21
36.516292
 31
0.0
  0
SOLID
  8
0
  6
BYBLOCK
 62
     0
 10
284.005911
 20
34.816292
 30
0.0
 11
284.055911
 21
34.816292
 31
0.0
 12
284.030911
 22
34.666292
 32
0.0
 13
284.030911
 23
34.666292
 33
0.0
  0
SOLID
  8
0
  6
BYBLOCK
 62
     0
 10
284.005911
 20
36.516292
 30
0.0
 11
284.055911
 21
36.516292
 31
0.0
 12
284.030911
 22
36.666292
 32
0.0
 13
284.030911
 23
36.666292
 33
0.0
  0
TEXT
  8
0
  6
BYBLOCK
 62
     0
 10
283.993411
 20
35.541292
 30
0.0
 40
0.075
  1
2.00
 50
90.0
  7
ROMANC
 72
     1
 11
283.955911
 21
35.666292
 31
0.0
 73
     2
  0
POINT
  8
DEFPOINTS
  6
BYBLOCK
 62
     0
 10
285.297249
 20
34.666292
 30
0.0
  0
POINT
  8
DEFPOINTS
  6
BYBLOCK
 62
     0
 10
284.712249
 20
36.666292
 30
0.0
  0
POINT
  8
DEFPOINTS
  6
BYBLOCK
 62
     0
 10
284.030911
 20
36.666292
 30
0.0
  0
LINE
  8
0
  6
BYBLOCK
 62
     0
 10
285.297249
 20
34.966292
 30
0.0
 11
284.383199
 21
34.966292
 31
0.0
  0
LINE
  8
0
  6
BYBLOCK
 62
     0
 10
285.297249
 20
34.666292
 30
0.0
 11
284.383199
 21
34.666292
 31
0.0
  0
LINE
  8
0
  6
BYBLOCK
 62
     0
 10
284.398199
 20
35.116292
 30
0.0
 11
284.398199
 21
35.266292
 31
0.0
  0
LINE
  8
0
  6
BYBLOCK
 62
     0
 10
284.398199
 20
34.516292
 30
0.0
 11
284.398199
 21
34.366292
 31
0.0
  0
SOLID
  8
0
  6
BYBLOCK
 62
     0
 10
284.373199
 20
35.116292
 30
0.0
 11
284.423199
 21
35.116292
 31
0.0
 12
284.398199
 22
34.966292
 32
0.0
 13
284.398199
 23
34.966292
 33
0.0
  0
SOLID
  8
0
  6
BYBLOCK
 62
     0
 10
284.373199
 20
34.516292
 30
0.0
 11
284.423199
 21
34.516292
 31
0.0
 12
284.398199
 22
34.666292
 32
0.0
 13
284.398199
 23
34.666292
 33
0.0
  0
LINE
  8
0
  6
BYBLOCK
 62
     0
 10
284.398199
 20
34.966292
 30
0.0
 11
284.398199
 21
34.666292
 31
0.0
  0
TEXT
  8
0
  6
BYBLOCK
 62
     0
 10
284.360699
 20
34.691292
 30
0.0
 40
0.075
  1
0.30
 50
90.0
  7
ROMANC
 72
     1
 11
284.323199
 21
34.816292
 31
0.0
 73
     2
  0
POINT
  8
DEFPOINTS
  6
BYBLOCK
 62
     0
 10
285.312249
 20
34.966292
 30
0.0
  0
POINT
  8
DEFPOINTS
  6
BYBLOCK
 62
     0
 10
285.312249
 20
34.666292
 30
0.0
  0
POINT
  8
DEFPOINTS
  6
BYBLOCK
 62
     0
 10
284.398199
 20
34.666292
 30
0.0
  0
LINE
  8
0
 10
284.697249
 20
36.681292
 30
0.0
 11
287.277249
 21
36.681292
 31
0.0
  0
LINE
  8
0
 10
287.277249
 20
36.681292
 30
0.0
 11
287.277249
 21
34.651292
 31
0.0
  0
LINE
  8
0
 10
287.277249
 20
34.651292
 30
0.0
 11
285.297249
 21
34.651292
 31
0.0
  0
LINE
  8
0
 10
285.297249
 20
34.651292
 30
0.0
 11
285.297249
 21
34.951292
 31
0.0
  0
LINE
  8
0
 10
285.297249
 20
34.951292
 30
0.0
 11
284.697249
 21
34.951292
 31
0.0
  0
LINE
  8
0
 10
284.697249
 20
34.951292
 30
0.0
 11
284.697249
 21
36.681292
 31
0.0
  0
LINE
  8
0
 10
284.704749
 20
36.673792
 30
0.0
 11
287.269749
 21
36.673792
 31
0.0
  0
LINE
  8
0
 10
287.269749
 20
36.673792
 30
0.0
 11
287.269749
 21
34.658792
 31
0.0
  0
LINE
  8
0
 10
287.269749
 20
34.658792
 30
0.0
 11
285.304749
 21
34.658792
 31
0.0
  0
LINE
  8
0
 10
285.304749
 20
34.658792
 30
0.0
 11
285.304749
 21
34.958792
 31
0.0
  0
LINE
  8
0
 10
285.304749
 20
34.958792
 30
0.0
 11
284.704749
 21
34.958792
 31
0.0
  0
LINE
  8
0
 10
284.704749
 20
34.958792
 30
0.0
 11
284.704749
 21
36.673792
 31
0.0
  0
LINE
  8
0
  6
BYBLOCK
 62
     0
 10
284.712249
 20
34.951292
 30
0.0
 11
284.712249
 21
33.748436
 31
0.0
  0
LINE
  8
0
  6
BYBLOCK
 62
     0
 10
287.262249
 20
34.651292
 30
0.0
 11
287.262249
 21
33.748436
 31
0.0
  0
LINE
  8
0
  6
BYBLOCK
 62
     0
 10
284.862249
 20
33.763436
 30
0.0
 11
287.112249
 21
33.763436
 31
0.0
  0
SOLID
  8
0
  6
BYBLOCK
 62
     0
 10
284.862249
 20
33.788436
 30
0.0
 11
284.862249
 21
33.738436
 31
0.0
 12
284.712249
 22
33.763436
 32
0.0
 13
284.712249
 23
33.763436
 33
0.0
  0
SOLID
  8
0
  6
BYBLOCK
 62
     0
 10
287.112249
 20
33.788436
 30
0.0
 11
287.112249
 21
33.738436
 31
0.0
 12
287.262249
 22
33.763436
 32
0.0
 13
287.262249
 23
33.763436
 33
0.0
  0
TEXT
  8
0
  6
BYBLOCK
 62
     0
 10
285.900783
 20
33.800936
 30
0.0
 40
0.075
  1
2.55
  7
ROMANC
 72
     1
 11
286.025783
 21
33.838436
 31
0.0
 73
     2
  0
POINT
  8
DEFPOINTS
  6
BYBLOCK
 62
     0
 10
284.712249
 20
34.966292
 30
0.0
  0
POINT
  8
DEFPOINTS
  6
BYBLOCK
 62
     0
 10
287.262249
 20
34.666292
 30
0.0
  0
POINT
  8
DEFPOINTS
  6
BYBLOCK
 62
     0
 10
287.262249
 20
33.763436
 30
0.0
  0
LINE
  8
0
  6
BYBLOCK
 62
     0
 10
285.312249
 20
34.651292
 30
0.0
 11
285.312249
 21
34.154024
 31
0.0
  0
LINE
  8
0
  6
BYBLOCK
 62
     0
 10
284.712249
 20
34.951292
 30
0.0
 11
284.712249
 21
34.154024
 31
0.0
  0
LINE
  8
0
  6
BYBLOCK
 62
     0
 10
285.462249
 20
34.169024
 30
0.0
 11
285.612249
 21
34.169024
 31
0.0
  0
LINE
  8
0
  6
BYBLOCK
 62
     0
 10
284.562249
 20
34.169024
 30
0.0
 11
284.412249
 21
34.169024
 31
0.0
  0
SOLID
  8
0
  6
BYBLOCK
 62
     0
 10
285.462249
 20
34.194024
 30
0.0
 11
285.462249
 21
34.144024
 31
0.0
 12
285.312249
 22
34.169024
 32
0.0
 13
285.312249
 23
34.169024
 33
0.0
  0
SOLID
  8
0
  6
BYBLOCK
 62
     0
 10
284.562249
 20
34.194024
 30
0.0
 11
284.562249
 21
34.144024
 31
0.0
 12
284.712249
 22
34.169024
 32
0.0
 13
284.712249
 23
34.169024
 33
0.0
  0
LINE
  8
0
  6
BYBLOCK
 62
     0
 10
285.312249
 20
34.169024
 30
0.0
 11
284.712249
 21
34.169024
 31
0.0
  0
TEXT
  8
0
  6
BYBLOCK
 62
     0
 10
284.887249
 20
34.206524
 30
0.0
 40
0.075
  1
0.60
  7
ROMANC
 72
     1
 11
285.012249
 21
34.244024
 31
0.0
 73
     2
  0
POINT
  8
DEFPOINTS
  6
BYBLOCK
 62
     0
 10
285.312249
 20
34.666292
 30
0.0
  0
POINT
  8
DEFPOINTS
  6
BYBLOCK
 62
     0
 10
284.712249
 20
34.966292
 30
0.0
  0
POINT
  8
DEFPOINTS
  6
BYBLOCK
 62
     0
 10
284.712249
 20
34.169024
 30
0.0
  0
LINE
  8
0
  6
BYBLOCK
 62
     0
 10
285.312249
 20
34.651292
 30
0.0
 11
285.312249
 21
34.154024
 31
0.0
  0
LINE
  8
0
  6
BYBLOCK
 62
     0
 10
287.262249
 20
34.651292
 30
0.0
 11
287.262249
 21
34.154024
 31
0.0
  0
LINE
  8
0
  6
BYBLOCK
 62
     0
 10
285.462249
 20
34.169024
 30
0.0
 11
287.112249
 21
34.169024
 31
0.0
  0
SOLID
  8
0
  6
BYBLOCK
 62
     0
 10
285.462249
 20
34.194024
 30
0.0
 11
285.462249
 21
34.144024
 31
0.0
 12
285.312249
 22
34.169024
 32
0.0
 13
285.312249
 23
34.169024
 33
0.0
  0
SOLID
  8
0
  6
BYBLOCK
 62
     0
 10
287.112249
 20
34.194024
 30
0.0
 11
287.112249
 21
34.144024
 31
0.0
 12
287.262249
 22
34.169024
 32
0.0
 13
287.262249
 23
34.169024
 33
0.0
  0
TEXT
  8
0
  6
BYBLOCK
 62
     0
 10
286.156892
 20
34.206524
 30
0.0
 40
0.075
  1
1.95
  7
ROMANC
 72
     1
 11
286.287249
 21
34.244024
 31
0.0
 73
     2
  0
POINT
  8
DEFPOINTS
  6
BYBLOCK
 62
     0
 10
285.312249
 20
34.666292
 30
0.0
  0
POINT
  8
DEFPOINTS
  6
BYBLOCK
 62
     0
 10
287.262249
 20
34.666292
 30
0.0
  0
POINT
  8
DEFPOINTS
  6
BYBLOCK
 62
     0
 10
287.262249
 20
34.169024
 30
0.0
  0
LINE
  8
0
 10
284.712249
 20
36.666292
 30
0.0
 11
287.262249
 21
36.666292
 31
0.0
  0
LINE
  8
0
 10
287.262249
 20
36.666292
 30
0.0
 11
287.262249
 21
34.666292
 31
0.0
  0
LINE
  8
0
 10
287.262249
 20
34.666292
 30
0.0
 11
285.312249
 21
34.666292
 31
0.0
  0
LINE
  8
0
 10
285.312249
 20
34.666292
 30
0.0
 11
285.312249
 21
34.966292
 31
0.0
  0
LINE
  8
0
 10
285.312249
 20
34.966292
 30
0.0
 11
284.712249
 21
34.966292
 31
0.0
  0
LINE
  8
0
 10
284.712249
 20
34.966292
 30
0.0
 11
284.712249
 21
36.666292
 31
0.0
  0
ENDSEC
  0
EOF
