  0
SECTION
  2
HEADER
  9
$ACADVER
  1
AC1009
  9
$INSBASE
 10
105.464027
 20
-4.528761
 30
0.0
  9
$EXTMIN
 10
281.395795
 20
29.897444
 30
0.0
  9
$EXTMAX
 10
291.895795
 20
44.747444
 30
0.0
  9
$LIMMIN
 10
0.0
 20
0.0
  9
$LIMMAX
 10
410.0
 20
287.0
  9
$ORTHOMODE
 70
     1
  9
$REGENMODE
 70
     1
  9
$FILLMODE
 70
     1
  9
$QTEXTMODE
 70
     0
  9
$MIRRTEXT
 70
     1
  9
$DRAGMODE
 70
     2
  9
$LTSCALE
 40
25.0
  9
$OSMODE
 70
     0
  9
$ATTMODE
 70
     1
  9
$TEXTSIZE
 40
0.1
  9
$TRACEWID
 40
1.0
  9
$TEXTSTYLE
  7
ROMANC
  9
$CLAYER
  8
0
  9
$CELTYPE
  6
BYLAYER
  9
$CECOLOR
 62
   256
  9
$DIMSCALE
 40
1.5
  9
$DIMASZ
 40
0.1
  9
$DIMEXO
 40
0.01
  9
$DIMDLI
 40
7.0
  9
$DIMRND
 40
0.0
  9
$DIMDLE
 40
0.0
  9
$DIMEXE
 40
0.01
  9
$DIMTP
 40
0.0
  9
$DIMTM
 40
0.0
  9
$DIMTXT
 40
0.05
  9
$DIMCEN
 40
0.1
  9
$DIMTSZ
 40
0.0
  9
$DIMTOL
 70
     0
  9
$DIMLIM
 70
     0
  9
$DIMTIH
 70
     0
  9
$DIMTOH
 70
     0
  9
$DIMSE1
 70
     0
  9
$DIMSE2
 70
     0
  9
$DIMTAD
 70
     1
  9
$DIMZIN
 70
     0
  9
$DIMBLK
  1

  9
$DIMASO
 70
     1
  9
$DIMSHO
 70
     0
  9
$DIMPOST
  1

  9
$DIMAPOST
  1

  9
$DIMALT
 70
     0
  9
$DIMALTD
 70
     2
  9
$DIMALTF
 40
25.4
  9
$DIMLFAC
 40
1.0
  9
$DIMTOFL
 70
     1
  9
$DIMTVP
 40
0.0
  9
$DIMTIX
 70
     1
  9
$DIMSOXD
 70
     0
  9
$DIMSAH
 70
     0
  9
$DIMBLK1
  1

  9
$DIMBLK2
  1

  9
$DIMSTYLE
  2
*UNNAMED
  9
$DIMCLRD
 70
     0
  9
$DIMCLRE
 70
     0
  9
$DIMCLRT
 70
     0
  9
$DIMTFAC
 40
70.0
  9
$DIMGAP
 40
0.09
  9
$LUNITS
 70
     2
  9
$LUPREC
 70
     2
  9
$SKETCHINC
 40
1.0
  9
$FILLETRAD
 40
0.0
  9
$AUNITS
 70
     0
  9
$AUPREC
 70
     0
  9
$MENU
  1
acad
  9
$ELEVATION
 40
0.0
  9
$PELEVATION
 40
0.0
  9
$THICKNESS
 40
0.0
  9
$LIMCHECK
 70
     0
  9
$BLIPMODE
 70
     0
  9
$CHAMFERA
 40
0.0
  9
$CHAMFERB
 40
0.0
  9
$SKPOLY
 70
     0
  9
$TDCREATE
 40
2450305.554557986
  9
$TDUPDATE
 40
2450830.365067592
  9
$TDINDWG
 40
0.0833273148
  9
$TDUSRTIMER
 40
0.0833273148
  9
$USRTIMER
 70
     1
  9
$ANGBASE
 50
0.0
  9
$ANGDIR
 70
     0
  9
$PDMODE
 70
     0
  9
$PDSIZE
 40
0.0
  9
$PLINEWID
 40
0.0
  9
$COORDS
 70
     2
  9
$SPLFRAME
 70
     0
  9
$SPLINETYPE
 70
     6
  9
$SPLINESEGS
 70
     8
  9
$ATTDIA
 70
     0
  9
$ATTREQ
 70
     1
  9
$HANDLING
 70
     0
  9
$HANDSEED
  5
0
  9
$SURFTAB1
 70
     6
  9
$SURFTAB2
 70
     6
  9
$SURFTYPE
 70
     6
  9
$SURFU
 70
     6
  9
$SURFV
 70
     6
  9
$UCSNAME
  2

  9
$UCSORG
 10
0.0
 20
0.0
 30
0.0
  9
$UCSXDIR
 10
1.0
 20
0.0
 30
0.0
  9
$UCSYDIR
 10
0.0
 20
1.0
 30
0.0
  9
$PUCSNAME
  2

  9
$PUCSORG
 10
0.0
 20
0.0
 30
0.0
  9
$PUCSXDIR
 10
1.0
 20
0.0
 30
0.0
  9
$PUCSYDIR
 10
0.0
 20
1.0
 30
0.0
  9
$USERI1
 70
     0
  9
$USERI2
 70
     0
  9
$USERI3
 70
     0
  9
$USERI4
 70
     0
  9
$USERI5
 70
     0
  9
$USERR1
 40
0.0
  9
$USERR2
 40
0.0
  9
$USERR3
 40
0.0
  9
$USERR4
 40
0.0
  9
$USERR5
 40
0.0
  9
$WORLDVIEW
 70
     1
  9
$SHADEDGE
 70
     3
  9
$SHADEDIF
 70
    70
  9
$TILEMODE
 70
     1
  9
$MAXACTVP
 70
    16
  9
$PINSBASE
 10
0.0
 20
0.0
 30
0.0
  9
$PLIMCHECK
 70
     0
  9
$PEXTMIN
 10
1.000000E+20
 20
1.000000E+20
 30
1.000000E+20
  9
$PEXTMAX
 10
-1.000000E+20
 20
-1.000000E+20
 30
-1.000000E+20
  9
$PLIMMIN
 10
0.0
 20
0.0
  9
$PLIMMAX
 10
12.0
 20
9.0
  9
$UNITMODE
 70
     0
  9
$VISRETAIN
 70
     0
  9
$PLINEGEN
 70
     0
  9
$PSLTSCALE
 70
     0
  9
$TREEDEPTH
 70
  3020
  9
$DWGCODEPAGE
  3
iso8859-1
  0
ENDSEC
  0
SECTION
  2
TABLES
  0
TABLE
  2
VPORT
 70
     2
  0
VPORT
  2
*ACTIVE
 70
     0
 10
0.0
 20
0.0
 11
1.0
 21
1.0
 12
293.357646
 22
37.322444
 13
0.0
 23
0.0
 14
1.0
 24
1.0
 15
10.0
 25
10.0
 16
0.0
 26
0.0
 36
1.0
 17
0.0
 27
0.0
 37
0.0
 40
14.85
 41
1.611024
 42
50.0
 43
0.0
 44
0.0
 50
0.0
 51
0.0
 71
     0
 72
   100
 73
     1
 74
     0
 75
     0
 76
     0
 77
     0
 78
     1
  0
ENDTAB
  0
TABLE
  2
LTYPE
 70
     1
  0
LTYPE
  2
CONTINUOUS
 70
    64
  3
Solid line
 72
    65
 73
     0
 40
0.0
  0
ENDTAB
  0
TABLE
  2
LAYER
 70
     3
  0
LAYER
  2
0
 70
    64
 62
     7
  6
CONTINUOUS
  0
LAYER
  2
MESURA
 70
     0
 62
     7
  6
CONTINUOUS
  0
LAYER
  2
DEFPOINTS
 70
    64
 62
     7
  6
CONTINUOUS
  0
ENDTAB
  0
TABLE
  2
STYLE
 70
     2
  0
STYLE
  2
STANDARD
 70
     0
 40
0.0
 41
1.0
 50
0.0
 71
     0
 42
0.1
  3
txt
  4

  0
STYLE
  2
ROMANC
 70
    64
 40
0.0
 41
1.0
 50
0.0
 71
     0
 42
0.1
  3
romanc
  4

  0
ENDTAB
  0
TABLE
  2
VIEW
 70
     0
  0
ENDTAB
  0
TABLE
  2
UCS
 70
     0
  0
ENDTAB
  0
TABLE
  2
APPID
 70
     1
  0
APPID
  2
ACAD
 70
    64
  0
ENDTAB
  0
TABLE
  2
DIMSTYLE
 70
     1
  0
DIMSTYLE
  2
SILVIA
 70
     0
  3

  4

  5

  6

  7

 40
1.5
 41
0.1
 42
0.01
 43
7.0
 44
0.01
 45
0.0
 46
0.0
 47
0.0
 48
0.0
140
0.05
141
0.1
142
0.0
143
25.4
144
1.0
145
0.0
146
70.0
147
0.09
 71
     0
 72
     0
 73
     0
 74
     0
 75
     0
 76
     0
 77
     1
 78
     0
170
     0
171
     2
172
     1
173
     0
174
     1
175
     0
176
     0
177
     0
178
     0
  0
ENDTAB
  0
ENDSEC
  0
SECTION
  2
BLOCKS
  0
BLOCK
  8
0
  2
*X3
 70
    65
 10
0.0
 20
0.0
 30
0.0
  3
*X
  0
LINE
  8
0
 62
     0
 10
286.185641
 20
34.897569
 30
0.0
 11
286.503538
 21
35.215466
 31
0.0
  0
LINE
  8
0
 62
     0
 10
286.142972
 20
34.943288
 30
0.0
 11
286.41515
 21
35.215466
 31
0.0
  0
LINE
  8
0
 62
     0
 10
286.107193
 20
34.995897
 30
0.0
 11
286.326762
 21
35.215466
 31
0.0
  0
LINE
  8
0
 62
     0
 10
286.077346
 20
35.054439
 30
0.0
 11
286.238373
 21
35.215466
 31
0.0
  0
LINE
  8
0
 62
     0
 10
286.054067
 20
35.119548
 30
0.0
 11
286.149985
 21
35.215466
 31
0.0
  0
LINE
  8
0
 62
     0
 10
286.03748
 20
35.191349
 30
0.0
 11
286.061597
 21
35.215466
 31
0.0
  0
LINE
  8
0
 62
     0
 10
286.23548
 20
34.859019
 30
0.0
 11
286.591927
 21
35.215466
 31
0.0
  0
LINE
  8
0
 62
     0
 10
286.294293
 20
34.829444
 30
0.0
 11
286.680315
 21
35.215466
 31
0.0
  0
LINE
  8
0
 62
     0
 10
286.368824
 20
34.815587
 30
0.0
 11
286.708257
 21
35.15502
 31
0.0
  0
LINE
  8
0
 62
     0
 10
286.479213
 20
34.837587
 30
0.0
 11
286.656831
 21
35.015205
 31
0.0
  0
ENDBLK
  8
0
  0
BLOCK
  8
0
  2
*D4
 70
    65
 10
0.0
 20
0.0
 30
0.0
  3
*D
  0
LINE
  8
0
  6
BYBLOCK
 62
     0
 10
285.126575
 20
36.280466
 30
0.0
 11
285.126575
 21
36.280466
 31
0.0
  0
LINE
  8
0
  6
BYBLOCK
 62
     0
 10
287.626575
 20
36.280466
 30
0.0
 11
287.626575
 21
36.280466
 31
0.0
  0
LINE
  8
0
  6
BYBLOCK
 62
     0
 10
285.276575
 20
36.265466
 30
0.0
 11
287.476575
 21
36.265466
 31
0.0
  0
SOLID
  8
0
  6
BYBLOCK
 62
     0
 10
285.276575
 20
36.290466
 30
0.0
 11
285.276575
 21
36.240466
 31
0.0
 12
285.126575
 22
36.265466
 32
0.0
 13
285.126575
 23
36.265466
 33
0.0
  0
SOLID
  8
0
  6
BYBLOCK
 62
     0
 10
287.476575
 20
36.290466
 30
0.0
 11
287.476575
 21
36.240466
 31
0.0
 12
287.626575
 22
36.265466
 32
0.0
 13
287.626575
 23
36.265466
 33
0.0
  0
TEXT
  8
0
  6
BYBLOCK
 62
     0
 10
286.251575
 20
36.302966
 30
0.0
 40
0.075
  1
2.50
  7
ROMANC
 72
     1
 11
286.376575
 21
36.340466
 31
0.0
 73
     2
  0
POINT
  8
DEFPOINTS
  6
BYBLOCK
 62
     0
 10
285.126575
 20
36.265466
 30
0.0
  0
POINT
  8
DEFPOINTS
  6
BYBLOCK
 62
     0
 10
287.626575
 20
36.265466
 30
0.0
  0
POINT
  8
DEFPOINTS
  6
BYBLOCK
 62
     0
 10
287.626575
 20
36.265466
 30
0.0
  0
ENDBLK
  8
0
  0
BLOCK
  8
0
  2
*D5
 70
    65
 10
0.0
 20
0.0
 30
0.0
  3
*D
  0
LINE
  8
0
  6
BYBLOCK
 62
     0
 10
286.026575
 20
35.300466
 30
0.0
 11
286.026575
 21
34.442924
 31
0.0
  0
LINE
  8
0
  6
BYBLOCK
 62
     0
 10
286.726575
 20
35.300466
 30
0.0
 11
286.726575
 21
34.442924
 31
0.0
  0
LINE
  8
0
  6
BYBLOCK
 62
     0
 10
285.876575
 20
34.457924
 30
0.0
 11
285.726575
 21
34.457924
 31
0.0
  0
LINE
  8
0
  6
BYBLOCK
 62
     0
 10
286.876575
 20
34.457924
 30
0.0
 11
287.026575
 21
34.457924
 31
0.0
  0
SOLID
  8
0
  6
BYBLOCK
 62
     0
 10
285.876575
 20
34.482924
 30
0.0
 11
285.876575
 21
34.432924
 31
0.0
 12
286.026575
 22
34.457924
 32
0.0
 13
286.026575
 23
34.457924
 33
0.0
  0
SOLID
  8
0
  6
BYBLOCK
 62
     0
 10
286.876575
 20
34.482924
 30
0.0
 11
286.876575
 21
34.432924
 31
0.0
 12
286.726575
 22
34.457924
 32
0.0
 13
286.726575
 23
34.457924
 33
0.0
  0
LINE
  8
0
  6
BYBLOCK
 62
     0
 10
286.026575
 20
34.457924
 30
0.0
 11
286.726575
 21
34.457924
 31
0.0
  0
TEXT
  8
0
  6
BYBLOCK
 62
     0
 10
286.251575
 20
34.495424
 30
0.0
 40
0.075
  1
0.70
  7
ROMANC
 72
     1
 11
286.376575
 21
34.532924
 31
0.0
 73
     2
  0
POINT
  8
DEFPOINTS
  6
BYBLOCK
 62
     0
 10
286.026575
 20
35.315466
 30
0.0
  0
POINT
  8
DEFPOINTS
  6
BYBLOCK
 62
     0
 10
286.726575
 20
35.315466
 30
0.0
  0
POINT
  8
DEFPOINTS
  6
BYBLOCK
 62
     0
 10
286.726575
 20
34.457924
 30
0.0
  0
ENDBLK
  8
0
  0
BLOCK
  8
0
  2
*D6
 70
    65
 10
0.0
 20
0.0
 30
0.0
  3
*D
  0
LINE
  8
0
  6
BYBLOCK
 62
     0
 10
285.226575
 20
35.300466
 30
0.0
 11
285.226575
 21
34.134386
 31
0.0
  0
LINE
  8
0
  6
BYBLOCK
 62
     0
 10
287.526575
 20
35.300466
 30
0.0
 11
287.526575
 21
34.134386
 31
0.0
  0
LINE
  8
0
  6
BYBLOCK
 62
     0
 10
285.376575
 20
34.149386
 30
0.0
 11
287.376575
 21
34.149386
 31
0.0
  0
SOLID
  8
0
  6
BYBLOCK
 62
     0
 10
285.376575
 20
34.174386
 30
0.0
 11
285.376575
 21
34.124386
 31
0.0
 12
285.226575
 22
34.149386
 32
0.0
 13
285.226575
 23
34.149386
 33
0.0
  0
SOLID
  8
0
  6
BYBLOCK
 62
     0
 10
287.376575
 20
34.174386
 30
0.0
 11
287.376575
 21
34.124386
 31
0.0
 12
287.526575
 22
34.149386
 32
0.0
 13
287.526575
 23
34.149386
 33
0.0
  0
TEXT
  8
0
  6
BYBLOCK
 62
     0
 10
286.251575
 20
34.186886
 30
0.0
 40
0.075
  1
2.30
  7
ROMANC
 72
     1
 11
286.376575
 21
34.224386
 31
0.0
 73
     2
  0
POINT
  8
DEFPOINTS
  6
BYBLOCK
 62
     0
 10
285.226575
 20
35.315466
 30
0.0
  0
POINT
  8
DEFPOINTS
  6
BYBLOCK
 62
     0
 10
287.526575
 20
35.315466
 30
0.0
  0
POINT
  8
DEFPOINTS
  6
BYBLOCK
 62
     0
 10
287.526575
 20
34.149386
 30
0.0
  0
ENDBLK
  8
0
  0
BLOCK
  8
0
  2
*D8
 70
    65
 10
0.0
 20
0.0
 30
0.0
  3
*D
  0
LINE
  8
0
  6
BYBLOCK
 62
     0
 10
286.041575
 20
35.315466
 30
0.0
 11
287.826506
 21
35.315466
 31
0.0
  0
LINE
  8
0
  6
BYBLOCK
 62
     0
 10
286.076597
 20
35.215466
 30
0.0
 11
287.826506
 21
35.215466
 31
0.0
  0
LINE
  8
0
  6
BYBLOCK
 62
     0
 10
287.811506
 20
35.465466
 30
0.0
 11
287.811506
 21
35.615466
 31
0.0
  0
LINE
  8
0
  6
BYBLOCK
 62
     0
 10
287.811506
 20
35.065466
 30
0.0
 11
287.811506
 21
34.915466
 31
0.0
  0
SOLID
  8
0
  6
BYBLOCK
 62
     0
 10
287.786506
 20
35.465466
 30
0.0
 11
287.836506
 21
35.465466
 31
0.0
 12
287.811506
 22
35.315466
 32
0.0
 13
287.811506
 23
35.315466
 33
0.0
  0
SOLID
  8
0
  6
BYBLOCK
 62
     0
 10
287.786506
 20
35.065466
 30
0.0
 11
287.836506
 21
35.065466
 31
0.0
 12
287.811506
 22
35.215466
 32
0.0
 13
287.811506
 23
35.215466
 33
0.0
  0
LINE
  8
0
  6
BYBLOCK
 62
     0
 10
287.811506
 20
35.315466
 30
0.0
 11
287.811506
 21
35.215466
 31
0.0
  0
TEXT
  8
0
  6
BYBLOCK
 62
     0
 10
287.774006
 20
35.140466
 30
0.0
 40
0.075
  1
0.10
 50
90.0
  7
ROMANC
 72
     1
 11
287.736506
 21
35.265466
 31
0.0
 73
     2
  0
POINT
  8
DEFPOINTS
  6
BYBLOCK
 62
     0
 10
286.026575
 20
35.315466
 30
0.0
  0
POINT
  8
DEFPOINTS
  6
BYBLOCK
 62
     0
 10
286.061597
 20
35.215466
 30
0.0
  0
POINT
  8
DEFPOINTS
  6
BYBLOCK
 62
     0
 10
287.811506
 20
35.215466
 30
0.0
  0
ENDBLK
  8
0
  0
BLOCK
  8
0
  2
*D10
 70
    65
 10
0.0
 20
0.0
 30
0.0
  3
*D
  0
LINE
  8
0
  6
BYBLOCK
 62
     0
 10
286.741575
 20
35.315466
 30
0.0
 11
288.18025
 21
35.315466
 31
0.0
  0
LINE
  8
0
  6
BYBLOCK
 62
     0
 10
286.391575
 20
34.815466
 30
0.0
 11
288.18025
 21
34.815466
 31
0.0
  0
LINE
  8
0
  6
BYBLOCK
 62
     0
 10
288.16525
 20
35.465466
 30
0.0
 11
288.16525
 21
35.615466
 31
0.0
  0
LINE
  8
0
  6
BYBLOCK
 62
     0
 10
288.16525
 20
34.665466
 30
0.0
 11
288.16525
 21
34.515466
 31
0.0
  0
SOLID
  8
0
  6
BYBLOCK
 62
     0
 10
288.14025
 20
35.465466
 30
0.0
 11
288.19025
 21
35.465466
 31
0.0
 12
288.16525
 22
35.315466
 32
0.0
 13
288.16525
 23
35.315466
 33
0.0
  0
SOLID
  8
0
  6
BYBLOCK
 62
     0
 10
288.14025
 20
34.665466
 30
0.0
 11
288.19025
 21
34.665466
 31
0.0
 12
288.16525
 22
34.815466
 32
0.0
 13
288.16525
 23
34.815466
 33
0.0
  0
LINE
  8
0
  6
BYBLOCK
 62
     0
 10
288.16525
 20
35.315466
 30
0.0
 11
288.16525
 21
34.815466
 31
0.0
  0
TEXT
  8
0
  6
BYBLOCK
 62
     0
 10
288.12775
 20
34.940466
 30
0.0
 40
0.075
  1
0.50
 50
90.0
  7
ROMANC
 72
     1
 11
288.09025
 21
35.065466
 31
0.0
 73
     2
  0
POINT
  8
DEFPOINTS
  6
BYBLOCK
 62
     0
 10
286.726575
 20
35.315466
 30
0.0
  0
POINT
  8
DEFPOINTS
  6
BYBLOCK
 62
     0
 10
286.376575
 20
34.815466
 30
0.0
  0
POINT
  8
DEFPOINTS
  6
BYBLOCK
 62
     0
 10
288.16525
 20
34.815466
 30
0.0
  0
ENDBLK
  8
0
  0
BLOCK
  8
0
  2
*D12
 70
    65
 10
0.0
 20
0.0
 30
0.0
  3
*D
  0
LINE
  8
0
  6
BYBLOCK
 62
     0
 10
287.541575
 20
35.315466
 30
0.0
 11
288.18025
 21
35.315466
 31
0.0
  0
LINE
  8
0
  6
BYBLOCK
 62
     0
 10
287.641575
 20
36.265466
 30
0.0
 11
288.18025
 21
36.265466
 31
0.0
  0
LINE
  8
0
  6
BYBLOCK
 62
     0
 10
288.16525
 20
35.465466
 30
0.0
 11
288.16525
 21
36.115466
 31
0.0
  0
SOLID
  8
0
  6
BYBLOCK
 62
     0
 10
288.14025
 20
35.465466
 30
0.0
 11
288.19025
 21
35.465466
 31
0.0
 12
288.16525
 22
35.315466
 32
0.0
 13
288.16525
 23
35.315466
 33
0.0
  0
SOLID
  8
0
  6
BYBLOCK
 62
     0
 10
288.14025
 20
36.115466
 30
0.0
 11
288.19025
 21
36.115466
 31
0.0
 12
288.16525
 22
36.265466
 32
0.0
 13
288.16525
 23
36.265466
 33
0.0
  0
TEXT
  8
0
  6
BYBLOCK
 62
     0
 10
288.12775
 20
35.665466
 30
0.0
 40
0.075
  1
0.95
 50
90.0
  7
ROMANC
 72
     1
 11
288.09025
 21
35.790466
 31
0.0
 73
     2
  0
POINT
  8
DEFPOINTS
  6
BYBLOCK
 62
     0
 10
287.526575
 20
35.315466
 30
0.0
  0
POINT
  8
DEFPOINTS
  6
BYBLOCK
 62
     0
 10
287.626575
 20
36.265466
 30
0.0
  0
POINT
  8
DEFPOINTS
  6
BYBLOCK
 62
     0
 10
288.16525
 20
36.265466
 30
0.0
  0
ENDBLK
  8
0
  0
BLOCK
  8
0
  2
*D13
 70
    65
 10
0.0
 20
0.0
 30
0.0
  3
*D
  0
LINE
  8
0
  6
BYBLOCK
 62
     0
 10
286.391575
 20
34.815466
 30
0.0
 11
288.553289
 21
34.815466
 31
0.0
  0
LINE
  8
0
  6
BYBLOCK
 62
     0
 10
286.391575
 20
37.515466
 30
0.0
 11
288.553289
 21
37.515466
 31
0.0
  0
LINE
  8
0
  6
BYBLOCK
 62
     0
 10
288.538289
 20
34.965466
 30
0.0
 11
288.538289
 21
37.365466
 31
0.0
  0
SOLID
  8
0
  6
BYBLOCK
 62
     0
 10
288.513289
 20
34.965466
 30
0.0
 11
288.563289
 21
34.965466
 31
0.0
 12
288.538289
 22
34.815466
 32
0.0
 13
288.538289
 23
34.815466
 33
0.0
  0
SOLID
  8
0
  6
BYBLOCK
 62
     0
 10
288.513289
 20
37.365466
 30
0.0
 11
288.563289
 21
37.365466
 31
0.0
 12
288.538289
 22
37.515466
 32
0.0
 13
288.538289
 23
37.515466
 33
0.0
  0
TEXT
  8
0
  6
BYBLOCK
 62
     0
 10
288.500789
 20
36.040466
 30
0.0
 40
0.075
  1
2.70
 50
90.0
  7
ROMANC
 72
     1
 11
288.463289
 21
36.165466
 31
0.0
 73
     2
  0
POINT
  8
DEFPOINTS
  6
BYBLOCK
 62
     0
 10
286.376575
 20
34.815466
 30
0.0
  0
POINT
  8
DEFPOINTS
  6
BYBLOCK
 62
     0
 10
286.376575
 20
37.515466
 30
0.0
  0
POINT
  8
DEFPOINTS
  6
BYBLOCK
 62
     0
 10
288.538289
 20
37.515466
 30
0.0
  0
ENDBLK
  8
0
  0
ENDSEC
  0
SECTION
  2
ENTITIES
  0
TEXT
  8
0
 10
283.887846
 20
40.56142
 30
0.0
 40
0.3
  1
P = 81.4 dm
  7
ROMANC
  0
TEXT
  8
0
 10
286.845612
 20
41.564915
 30
0.0
 40
0.1
  1
2
  7
ROMANC
  0
TEXT
  8
0
 10
283.925768
 20
41.857589
 30
0.0
 40
0.3
  1
ESCALA  1:50
  7
ROMANC
  0
TEXT
  8
0
 10
283.925768
 20
42.343303
 30
0.0
 40
0.3
  1
TIPUS   NT473
  7
ROMANC
  0
TEXT
  8
0
 10
283.938862
 20
41.258999
 30
0.0
 40
0.3
  1
S= 473 dm
  7
ROMANC
  0
LINE
  8
0
 10
286.033634
 20
35.215466
 30
0.0
 11
286.719516
 21
35.215466
 31
0.0
  0
LINE
  8
0
 10
285.221174
 20
35.309466
 30
0.0
 11
286.0206
 21
35.309466
 31
0.0
  0
ARC
  8
0
 10
286.738407
 20
35.315466
 30
0.0
 40
0.717831
 50
180.478913
 51
196.16949
  0
ARC
  8
0
 10
286.560454
 20
35.263869
 30
0.0
 40
0.532549
 50
196.16949
 51
214.99202
  0
ARC
  8
0
 10
286.447807
 20
35.185016
 30
0.0
 40
0.395046
 50
214.99202
 51
239.385769
  0
ARC
  8
0
 10
286.376575
 20
35.064638
 30
0.0
 40
0.255172
 50
239.385769
 51
270.0
  0
ARC
  8
0
 10
286.376575
 20
35.064638
 30
0.0
 40
0.255172
 50
270.0
 51
300.614231
  0
ARC
  8
0
 10
286.305343
 20
35.185016
 30
0.0
 40
0.395046
 50
300.614231
 51
325.00798
  0
ARC
  8
0
 10
286.192697
 20
35.263869
 30
0.0
 40
0.532549
 50
325.00798
 51
343.83051
  0
ARC
  8
0
 10
286.014744
 20
35.315466
 30
0.0
 40
0.717831
 50
343.83051
 51
359.521087
  0
LINE
  8
0
 10
286.73255
 20
35.309466
 30
0.0
 11
287.531977
 21
35.309466
 31
0.0
  0
LINE
  8
0
 10
287.531977
 20
35.309466
 30
0.0
 11
287.632575
 21
36.265151
 31
0.0
  0
ARC
  8
0
 10
286.376575
 20
36.265466
 30
0.0
 40
1.256
 50
359.985616
 51
180.014384
  0
LINE
  8
0
 10
285.120575
 20
36.265151
 30
0.0
 11
285.221174
 21
35.309466
 31
0.0
  0
LINE
  8
0
 10
285.223875
 20
35.312466
 30
0.0
 11
286.023582
 21
35.312466
 31
0.0
  0
ARC
  8
0
 10
286.738407
 20
35.315466
 30
0.0
 40
0.714831
 50
180.240459
 51
196.16949
  0
ARC
  8
0
 10
286.560454
 20
35.263869
 30
0.0
 40
0.529549
 50
196.16949
 51
214.99202
  0
ARC
  8
0
 10
286.447807
 20
35.185016
 30
0.0
 40
0.392046
 50
214.99202
 51
239.385769
  0
ARC
  8
0
 10
286.376575
 20
35.064638
 30
0.0
 40
0.252172
 50
239.385769
 51
270.0
  0
ARC
  8
0
 10
286.376575
 20
35.064638
 30
0.0
 40
0.252172
 50
270.0
 51
300.614231
  0
ARC
  8
0
 10
286.305343
 20
35.185016
 30
0.0
 40
0.392046
 50
300.614231
 51
325.00798
  0
ARC
  8
0
 10
286.192697
 20
35.263869
 30
0.0
 40
0.529549
 50
325.00798
 51
343.83051
  0
ARC
  8
0
 10
286.014744
 20
35.315466
 30
0.0
 40
0.714831
 50
343.83051
 51
359.759541
  0
LINE
  8
0
 10
286.729569
 20
35.312466
 30
0.0
 11
287.529276
 21
35.312466
 31
0.0
  0
LINE
  8
0
 10
287.529276
 20
35.312466
 30
0.0
 11
287.629575
 21
36.265309
 31
0.0
  0
ARC
  8
0
 10
286.376575
 20
36.265466
 30
0.0
 40
1.253
 50
359.992795
 51
180.007205
  0
LINE
  8
0
 10
285.123575
 20
36.265309
 30
0.0
 11
285.223875
 21
35.312466
 31
0.0
  0
LINE
  8
0
 10
285.226575
 20
35.315466
 30
0.0
 11
286.026575
 21
35.315466
 31
0.0
  0
ARC
  8
0
 10
286.738407
 20
35.315466
 30
0.0
 40
0.711831
 50
180.0
 51
196.16949
  0
ARC
  8
0
 10
286.560454
 20
35.263869
 30
0.0
 40
0.526549
 50
196.16949
 51
214.99202
  0
ARC
  8
0
 10
286.447807
 20
35.185016
 30
0.0
 40
0.389046
 50
214.99202
 51
239.385769
  0
ARC
  8
0
 10
286.376575
 20
35.064638
 30
0.0
 40
0.249172
 50
239.385769
 51
270.0
  0
ARC
  8
0
 10
286.376575
 20
35.064638
 30
0.0
 40
0.249172
 50
270.0
 51
300.614231
  0
ARC
  8
0
 10
286.305343
 20
35.185016
 30
0.0
 40
0.389046
 50
300.614231
 51
325.00798
  0
ARC
  8
0
 10
286.192697
 20
35.263869
 30
0.0
 40
0.526549
 50
325.00798
 51
343.83051
  0
ARC
  8
0
 10
286.014744
 20
35.315466
 30
0.0
 40
0.711831
 50
343.83051
 51
0.0
  0
LINE
  8
0
 10
286.726575
 20
35.315466
 30
0.0
 11
287.526575
 21
35.315466
 31
0.0
  0
LINE
  8
0
 10
287.526575
 20
35.315466
 30
0.0
 11
287.626575
 21
36.265466
 31
0.0
  0
ARC
  8
0
 10
286.376575
 20
36.265466
 30
0.0
 40
1.25
 50
0.0
 51
180.0
  0
LINE
  8
0
 10
285.126575
 20
36.265466
 30
0.0
 11
285.226575
 21
35.315466
 31
0.0
  0
LINE
  8
0
  6
BYBLOCK
 62
     0
 10
286.391575
 20
34.815466
 30
0.0
 11
288.553289
 21
34.815466
 31
0.0
  0
LINE
  8
0
  6
BYBLOCK
 62
     0
 10
286.391575
 20
37.515466
 30
0.0
 11
288.553289
 21
37.515466
 31
0.0
  0
LINE
  8
0
  6
BYBLOCK
 62
     0
 10
288.538289
 20
34.965466
 30
0.0
 11
288.538289
 21
37.365466
 31
0.0
  0
SOLID
  8
0
  6
BYBLOCK
 62
     0
 10
288.513289
 20
34.965466
 30
0.0
 11
288.563289
 21
34.965466
 31
0.0
 12
288.538289
 22
34.815466
 32
0.0
 13
288.538289
 23
34.815466
 33
0.0
  0
SOLID
  8
0
  6
BYBLOCK
 62
     0
 10
288.513289
 20
37.365466
 30
0.0
 11
288.563289
 21
37.365466
 31
0.0
 12
288.538289
 22
37.515466
 32
0.0
 13
288.538289
 23
37.515466
 33
0.0
  0
TEXT
  8
0
  6
BYBLOCK
 62
     0
 10
288.500789
 20
36.040466
 30
0.0
 40
0.075
  1
2.70
 50
90.0
  7
ROMANC
 72
     1
 11
288.463289
 21
36.165466
 31
0.0
 73
     2
  0
POINT
  8
DEFPOINTS
  6
BYBLOCK
 62
     0
 10
286.376575
 20
34.815466
 30
0.0
  0
POINT
  8
DEFPOINTS
  6
BYBLOCK
 62
     0
 10
286.376575
 20
37.515466
 30
0.0
  0
POINT
  8
DEFPOINTS
  6
BYBLOCK
 62
     0
 10
288.538289
 20
37.515466
 30
0.0
  0
LINE
  8
0
  6
BYBLOCK
 62
     0
 10
287.541575
 20
35.315466
 30
0.0
 11
288.18025
 21
35.315466
 31
0.0
  0
LINE
  8
0
  6
BYBLOCK
 62
     0
 10
287.641575
 20
36.265466
 30
0.0
 11
288.18025
 21
36.265466
 31
0.0
  0
LINE
  8
0
  6
BYBLOCK
 62
     0
 10
288.16525
 20
35.465466
 30
0.0
 11
288.16525
 21
36.115466
 31
0.0
  0
SOLID
  8
0
  6
BYBLOCK
 62
     0
 10
288.14025
 20
35.465466
 30
0.0
 11
288.19025
 21
35.465466
 31
0.0
 12
288.16525
 22
35.315466
 32
0.0
 13
288.16525
 23
35.315466
 33
0.0
  0
SOLID
  8
0
  6
BYBLOCK
 62
     0
 10
288.14025
 20
36.115466
 30
0.0
 11
288.19025
 21
36.115466
 31
0.0
 12
288.16525
 22
36.265466
 32
0.0
 13
288.16525
 23
36.265466
 33
0.0
  0
TEXT
  8
0
  6
BYBLOCK
 62
     0
 10
288.12775
 20
35.665466
 30
0.0
 40
0.075
  1
0.95
 50
90.0
  7
ROMANC
 72
     1
 11
288.09025
 21
35.790466
 31
0.0
 73
     2
  0
POINT
  8
DEFPOINTS
  6
BYBLOCK
 62
     0
 10
287.526575
 20
35.315466
 30
0.0
  0
POINT
  8
DEFPOINTS
  6
BYBLOCK
 62
     0
 10
287.626575
 20
36.265466
 30
0.0
  0
POINT
  8
DEFPOINTS
  6
BYBLOCK
 62
     0
 10
288.16525
 20
36.265466
 30
0.0
  0
LINE
  8
0
  6
BYBLOCK
 62
     0
 10
286.741575
 20
35.315466
 30
0.0
 11
288.18025
 21
35.315466
 31
0.0
  0
LINE
  8
0
  6
BYBLOCK
 62
     0
 10
286.391575
 20
34.815466
 30
0.0
 11
288.18025
 21
34.815466
 31
0.0
  0
LINE
  8
0
  6
BYBLOCK
 62
     0
 10
288.16525
 20
35.465466
 30
0.0
 11
288.16525
 21
35.615466
 31
0.0
  0
LINE
  8
0
  6
BYBLOCK
 62
     0
 10
288.16525
 20
34.665466
 30
0.0
 11
288.16525
 21
34.515466
 31
0.0
  0
SOLID
  8
0
  6
BYBLOCK
 62
     0
 10
288.14025
 20
35.465466
 30
0.0
 11
288.19025
 21
35.465466
 31
0.0
 12
288.16525
 22
35.315466
 32
0.0
 13
288.16525
 23
35.315466
 33
0.0
  0
SOLID
  8
0
  6
BYBLOCK
 62
     0
 10
288.14025
 20
34.665466
 30
0.0
 11
288.19025
 21
34.665466
 31
0.0
 12
288.16525
 22
34.815466
 32
0.0
 13
288.16525
 23
34.815466
 33
0.0
  0
LINE
  8
0
  6
BYBLOCK
 62
     0
 10
288.16525
 20
35.315466
 30
0.0
 11
288.16525
 21
34.815466
 31
0.0
  0
TEXT
  8
0
  6
BYBLOCK
 62
     0
 10
288.12775
 20
34.940466
 30
0.0
 40
0.075
  1
0.50
 50
90.0
  7
ROMANC
 72
     1
 11
288.09025
 21
35.065466
 31
0.0
 73
     2
  0
POINT
  8
DEFPOINTS
  6
BYBLOCK
 62
     0
 10
286.726575
 20
35.315466
 30
0.0
  0
POINT
  8
DEFPOINTS
  6
BYBLOCK
 62
     0
 10
286.376575
 20
34.815466
 30
0.0
  0
POINT
  8
DEFPOINTS
  6
BYBLOCK
 62
     0
 10
288.16525
 20
34.815466
 30
0.0
  0
LINE
  8
0
  6
BYBLOCK
 62
     0
 10
286.041575
 20
35.315466
 30
0.0
 11
287.826506
 21
35.315466
 31
0.0
  0
LINE
  8
0
  6
BYBLOCK
 62
     0
 10
286.076597
 20
35.215466
 30
0.0
 11
287.826506
 21
35.215466
 31
0.0
  0
LINE
  8
0
  6
BYBLOCK
 62
     0
 10
287.811506
 20
35.465466
 30
0.0
 11
287.811506
 21
35.615466
 31
0.0
  0
LINE
  8
0
  6
BYBLOCK
 62
     0
 10
287.811506
 20
35.065466
 30
0.0
 11
287.811506
 21
34.915466
 31
0.0
  0
SOLID
  8
0
  6
BYBLOCK
 62
     0
 10
287.786506
 20
35.465466
 30
0.0
 11
287.836506
 21
35.465466
 31
0.0
 12
287.811506
 22
35.315466
 32
0.0
 13
287.811506
 23
35.315466
 33
0.0
  0
SOLID
  8
0
  6
BYBLOCK
 62
     0
 10
287.786506
 20
35.065466
 30
0.0
 11
287.836506
 21
35.065466
 31
0.0
 12
287.811506
 22
35.215466
 32
0.0
 13
287.811506
 23
35.215466
 33
0.0
  0
LINE
  8
0
  6
BYBLOCK
 62
     0
 10
287.811506
 20
35.315466
 30
0.0
 11
287.811506
 21
35.215466
 31
0.0
  0
TEXT
  8
0
  6
BYBLOCK
 62
     0
 10
287.774006
 20
35.140466
 30
0.0
 40
0.075
  1
0.10
 50
90.0
  7
ROMANC
 72
     1
 11
287.736506
 21
35.265466
 31
0.0
 73
     2
  0
POINT
  8
DEFPOINTS
  6
BYBLOCK
 62
     0
 10
286.026575
 20
35.315466
 30
0.0
  0
POINT
  8
DEFPOINTS
  6
BYBLOCK
 62
     0
 10
286.061597
 20
35.215466
 30
0.0
  0
POINT
  8
DEFPOINTS
  6
BYBLOCK
 62
     0
 10
287.811506
 20
35.215466
 30
0.0
  0
LINE
  8
0
  6
BYBLOCK
 62
     0
 10
285.226575
 20
35.300466
 30
0.0
 11
285.226575
 21
34.134386
 31
0.0
  0
LINE
  8
0
  6
BYBLOCK
 62
     0
 10
287.526575
 20
35.300466
 30
0.0
 11
287.526575
 21
34.134386
 31
0.0
  0
LINE
  8
0
  6
BYBLOCK
 62
     0
 10
285.376575
 20
34.149386
 30
0.0
 11
287.376575
 21
34.149386
 31
0.0
  0
SOLID
  8
0
  6
BYBLOCK
 62
     0
 10
285.376575
 20
34.174386
 30
0.0
 11
285.376575
 21
34.124386
 31
0.0
 12
285.226575
 22
34.149386
 32
0.0
 13
285.226575
 23
34.149386
 33
0.0
  0
SOLID
  8
0
  6
BYBLOCK
 62
     0
 10
287.376575
 20
34.174386
 30
0.0
 11
287.376575
 21
34.124386
 31
0.0
 12
287.526575
 22
34.149386
 32
0.0
 13
287.526575
 23
34.149386
 33
0.0
  0
TEXT
  8
0
  6
BYBLOCK
 62
     0
 10
286.251575
 20
34.186886
 30
0.0
 40
0.075
  1
2.30
  7
ROMANC
 72
     1
 11
286.376575
 21
34.224386
 31
0.0
 73
     2
  0
POINT
  8
DEFPOINTS
  6
BYBLOCK
 62
     0
 10
285.226575
 20
35.315466
 30
0.0
  0
POINT
  8
DEFPOINTS
  6
BYBLOCK
 62
     0
 10
287.526575
 20
35.315466
 30
0.0
  0
POINT
  8
DEFPOINTS
  6
BYBLOCK
 62
     0
 10
287.526575
 20
34.149386
 30
0.0
  0
LINE
  8
0
  6
BYBLOCK
 62
     0
 10
286.026575
 20
35.300466
 30
0.0
 11
286.026575
 21
34.442924
 31
0.0
  0
LINE
  8
0
  6
BYBLOCK
 62
     0
 10
286.726575
 20
35.300466
 30
0.0
 11
286.726575
 21
34.442924
 31
0.0
  0
LINE
  8
0
  6
BYBLOCK
 62
     0
 10
285.876575
 20
34.457924
 30
0.0
 11
285.726575
 21
34.457924
 31
0.0
  0
LINE
  8
0
  6
BYBLOCK
 62
     0
 10
286.876575
 20
34.457924
 30
0.0
 11
287.026575
 21
34.457924
 31
0.0
  0
SOLID
  8
0
  6
BYBLOCK
 62
     0
 10
285.876575
 20
34.482924
 30
0.0
 11
285.876575
 21
34.432924
 31
0.0
 12
286.026575
 22
34.457924
 32
0.0
 13
286.026575
 23
34.457924
 33
0.0
  0
SOLID
  8
0
  6
BYBLOCK
 62
     0
 10
286.876575
 20
34.482924
 30
0.0
 11
286.876575
 21
34.432924
 31
0.0
 12
286.726575
 22
34.457924
 32
0.0
 13
286.726575
 23
34.457924
 33
0.0
  0
LINE
  8
0
  6
BYBLOCK
 62
     0
 10
286.026575
 20
34.457924
 30
0.0
 11
286.726575
 21
34.457924
 31
0.0
  0
TEXT
  8
0
  6
BYBLOCK
 62
     0
 10
286.251575
 20
34.495424
 30
0.0
 40
0.075
  1
0.70
  7
ROMANC
 72
     1
 11
286.376575
 21
34.532924
 31
0.0
 73
     2
  0
POINT
  8
DEFPOINTS
  6
BYBLOCK
 62
     0
 10
286.026575
 20
35.315466
 30
0.0
  0
POINT
  8
DEFPOINTS
  6
BYBLOCK
 62
     0
 10
286.726575
 20
35.315466
 30
0.0
  0
POINT
  8
DEFPOINTS
  6
BYBLOCK
 62
     0
 10
286.726575
 20
34.457924
 30
0.0
  0
LINE
  8
0
  6
BYBLOCK
 62
     0
 10
285.126575
 20
36.280466
 30
0.0
 11
285.126575
 21
36.280466
 31
0.0
  0
LINE
  8
0
  6
BYBLOCK
 62
     0
 10
287.626575
 20
36.280466
 30
0.0
 11
287.626575
 21
36.280466
 31
0.0
  0
LINE
  8
0
  6
BYBLOCK
 62
     0
 10
285.276575
 20
36.265466
 30
0.0
 11
287.476575
 21
36.265466
 31
0.0
  0
SOLID
  8
0
  6
BYBLOCK
 62
     0
 10
285.276575
 20
36.290466
 30
0.0
 11
285.276575
 21
36.240466
 31
0.0
 12
285.126575
 22
36.265466
 32
0.0
 13
285.126575
 23
36.265466
 33
0.0
  0
SOLID
  8
0
  6
BYBLOCK
 62
     0
 10
287.476575
 20
36.290466
 30
0.0
 11
287.476575
 21
36.240466
 31
0.0
 12
287.626575
 22
36.265466
 32
0.0
 13
287.626575
 23
36.265466
 33
0.0
  0
TEXT
  8
0
  6
BYBLOCK
 62
     0
 10
286.251575
 20
36.302966
 30
0.0
 40
0.075
  1
2.50
  7
ROMANC
 72
     1
 11
286.376575
 21
36.340466
 31
0.0
 73
     2
  0
POINT
  8
DEFPOINTS
  6
BYBLOCK
 62
     0
 10
285.126575
 20
36.265466
 30
0.0
  0
POINT
  8
DEFPOINTS
  6
BYBLOCK
 62
     0
 10
287.626575
 20
36.265466
 30
0.0
  0
POINT
  8
DEFPOINTS
  6
BYBLOCK
 62
     0
 10
287.626575
 20
36.265466
 30
0.0
  0
LINE
  8
0
 62
     0
 10
286.185641
 20
34.897569
 30
0.0
 11
286.503538
 21
35.215466
 31
0.0
  0
LINE
  8
0
 62
     0
 10
286.142972
 20
34.943288
 30
0.0
 11
286.41515
 21
35.215466
 31
0.0
  0
LINE
  8
0
 62
     0
 10
286.107193
 20
34.995897
 30
0.0
 11
286.326762
 21
35.215466
 31
0.0
  0
LINE
  8
0
 62
     0
 10
286.077346
 20
35.054439
 30
0.0
 11
286.238373
 21
35.215466
 31
0.0
  0
LINE
  8
0
 62
     0
 10
286.054067
 20
35.119548
 30
0.0
 11
286.149985
 21
35.215466
 31
0.0
  0
LINE
  8
0
 62
     0
 10
286.03748
 20
35.191349
 30
0.0
 11
286.061597
 21
35.215466
 31
0.0
  0
LINE
  8
0
 62
     0
 10
286.23548
 20
34.859019
 30
0.0
 11
286.591927
 21
35.215466
 31
0.0
  0
LINE
  8
0
 62
     0
 10
286.294293
 20
34.829444
 30
0.0
 11
286.680315
 21
35.215466
 31
0.0
  0
LINE
  8
0
 62
     0
 10
286.368824
 20
34.815587
 30
0.0
 11
286.708257
 21
35.15502
 31
0.0
  0
LINE
  8
0
 62
     0
 10
286.479213
 20
34.837587
 30
0.0
 11
286.656831
 21
35.015205
 31
0.0
  0
LINE
  8
0
 10
281.395795
 20
29.897444
 30
0.0
 11
281.395795
 21
44.747444
 31
0.0
  0
LINE
  8
0
 10
281.395795
 20
44.747444
 30
0.0
 11
291.895795
 21
44.747444
 31
0.0
  0
LINE
  8
0
 10
291.895795
 20
44.747444
 30
0.0
 11
291.895795
 21
29.897444
 31
0.0
  0
LINE
  8
0
 10
291.895795
 20
29.897444
 30
0.0
 11
281.395795
 21
29.897444
 31
0.0
  0
ENDSEC
  0
EOF
