  0
SECTION
  2
HEADER
  9
$ACADVER
  1
AC1009
  9
$INSBASE
 10
0.0
 20
0.0
 30
0.0
  9
$EXTMIN
 10
281.396000
 20
29.897000
 30
-2147483.648000
  9
$EXTMAX
 10
291.896000
 20
44.747000
 30
0.000000
  9
$LIMMIN
 10
280.396000
 20
28.897000
  9
$LIMMAX
 10
292.896000
 20
43.747000
  9
$ORTHOMODE
 70
     0
  9
$REGENMODE
 70
     1
  9
$FILLMODE
 70
     1
  9
$QTEXTMODE
 70
     0
  9
$MIRRTEXT
 70
     1
  9
$DRAGMODE
 70
     2
  9
$LTSCALE
 40
1.0
  9
$OSMODE
 70
     0
  9
$ATTMODE
 70
     1
  9
$TEXTSIZE
 40
0.2
  9
$TRACEWID
 40
0.05
  9
$TEXTSTYLE
  7
STANDARD
  9
$CLAYER
  8
0
  9
$CELTYPE
  6
BYLAYER
  9
$CECOLOR
 62
   256
  9
$DIMSCALE
 40
1.0
  9
$DIMASZ
 40
0.18
  9
$DIMEXO
 40
0.0625
  9
$DIMDLI
 40
0.38
  9
$DIMRND
 40
0.0
  9
$DIMDLE
 40
0.0
  9
$DIMEXE
 40
0.18
  9
$DIMTP
 40
0.0
  9
$DIMTM
 40
0.0
  9
$DIMTXT
 40
0.18
  9
$DIMCEN
 40
0.09
  9
$DIMTSZ
 40
0.0
  9
$DIMTOL
 70
     0
  9
$DIMLIM
 70
     0
  9
$DIMTIH
 70
     1
  9
$DIMTOH
 70
     1
  9
$DIMSE1
 70
     0
  9
$DIMSE2
 70
     0
  9
$DIMTAD
 70
     0
  9
$DIMZIN
 70
     0
  9
$DIMBLK
  1

  9
$DIMASO
 70
     1
  9
$DIMSHO
 70
     1
  9
$DIMPOST
  1

  9
$DIMAPOST
  1

  9
$DIMALT
 70
     0
  9
$DIMALTD
 70
     2
  9
$DIMALTF
 40
25.4
  9
$DIMLFAC
 40
1.0
  9
$DIMTOFL
 70
     0
  9
$DIMTVP
 40
0.0
  9
$DIMTIX
 70
     0
  9
$DIMSOXD
 70
     0
  9
$DIMSAH
 70
     0
  9
$DIMBLK1
  1

  9
$DIMBLK2
  1

  9
$DIMSTYLE
  2
*UNNAMED
  9
$DIMCLRD
 70
     0
  9
$DIMCLRE
 70
     0
  9
$DIMCLRT
 70
     0
  9
$DIMTFAC
 40
1.0
  9
$DIMGAP
 40
0.09
  9
$LUNITS
 70
     2
  9
$LUPREC
 70
     4
  9
$AXISMODE
 70
     0
  9
$AXISUNIT
 10
0.0
 20
0.0
  9
$SKETCHINC
 40
0.1
  9
$FILLETRAD
 40
0.0
  9
$AUNITS
 70
     0
  9
$AUPREC
 70
     0
  9
$MENU
  1
acad
  9
$ELEVATION
 40
0.0
  9
$PELEVATION
 40
0.0
  9
$THICKNESS
 40
0.0
  9
$LIMCHECK
 70
     0
  9
$BLIPMODE
 70
     1
  9
$CHAMFERA
 40
0.0
  9
$CHAMFERB
 40
0.0
  9
$SKPOLY
 70
     0
  9
$TDCREATE
 40
2448315.373408102
  9
$TDUPDATE
 40
2448315.373408102
  9
$TDINDWG
 40
0.0000000000
  9
$TDUSRTIMER
 40
0.0000000000
  9
$USRTIMER
 70
     1
  9
$ANGBASE
 50
0.0
  9
$ANGDIR
 70
     0
  9
$PDMODE
 70
     0
  9
$PDSIZE
 40
0.0
  9
$PLINEWID
 40
0.0
  9
$COORDS
 70
     0
  9
$SPLFRAME
 70
     0
  9
$SPLINETYPE
 70
     6
  9
$SPLINESEGS
 70
     8
  9
$ATTDIA
 70
     0
  9
$ATTREQ
 70
     1
  9
$HANDLING
 70
     0
  9
$HANDSEED
  5
0
  9
$SURFTAB1
 70
     6
  9
$SURFTAB2
 70
     6
  9
$SURFTYPE
 70
     6
  9
$SURFU
 70
     6
  9
$SURFV
 70
     6
  9
$UCSNAME
  2

  9
$UCSORG
 10
0.0
 20
0.0
 30
0.0
  9
$UCSXDIR
 10
1.0
 20
0.0
 30
0.0
  9
$UCSYDIR
 10
0.0
 20
1.0
 30
0.0
  9
$PUCSNAME
  2

  9
$PUCSORG
 10
0.0
 20
0.0
 30
0.0
  9
$PUCSXDIR
 10
1.0
 20
0.0
 30
0.0
  9
$PUCSYDIR
 10
0.0
 20
1.0
 30
0.0
  9
$USERI1
 70
     0
  9
$USERI2
 70
     0
  9
$USERI3
 70
     0
  9
$USERI4
 70
     0
  9
$USERI5
 70
     0
  9
$USERR1
 40
0.0
  9
$USERR2
 40
0.0
  9
$USERR3
 40
0.0
  9
$USERR4
 40
0.0
  9
$USERR5
 40
0.0
  9
$WORLDVIEW
 70
     1
  9
$SHADEDGE
 70
     3
  9
$SHADEDIF
 70
    70
  9
$TILEMODE
 70
     1
  9
$MAXACTVP
 70
    16
  9
$PINSBASE
 10
0.0
 20
0.0
 30
0.0
  9
$PLIMCHECK
 70
     0
  9
$PEXTMIN
 10
1.000000E+20
 20
1.000000E+20
 30
1.000000E+20
  9
$PEXTMAX
 10
-1.000000E+20
 20
-1.000000E+20
 30
-1.000000E+20
  9
$PLIMMIN
 10
0.0
 20
0.0
  9
$PLIMMAX
 10
12.0
 20
9.0
  9
$UNITMODE
 70
     0
  9
$VISRETAIN
 70
     0
  0
ENDSEC
  0
SECTION
  2
TABLES
  0
TABLE
  2
LTYPE
 70
    1
  0
LTYPE
  2
CONTINUOUS
 70
    64
3
Solid line
 72
    65
 73
0
 40
0.000000
  0
ENDTAB
  0
TABLE
  2
LAYER
 70
    8
  0
LAYER
  2
0
 70
    64
 62
7
  6
CONTINUOUS
  0
LAYER
  2
1
 70
    64
 62
7
  6
CONTINUOUS
  0
LAYER
  2
7
 70
    64
 62
7
  6
CONTINUOUS
  0
LAYER
  2
8
 70
    64
 62
7
  6
CONTINUOUS
  0
LAYER
  2
9
 70
    64
 62
7
  6
CONTINUOUS
  0
LAYER
  2
22
 70
    64
 62
7
  6
CONTINUOUS
  0
LAYER
  2
25
 70
    64
 62
7
  6
CONTINUOUS
  0
LAYER
  2
0
 70
    64
 62
7
  6
CONTINUOUS
  0
ENDTAB
  0
TABLE
  2
STYLE
 70
    1
  0
STYLE
  2
ROMANC
70
     0
 40
0.0
 41
1.0
 50
0.0
 71
     0
 42
0.2
  3
ROMANC
  4

  0
ENDTAB
  0
ENDSEC
  0
SECTION
  2
BLOCKS
  0
ENDSEC
  0
SECTION
  2
ENTITIES
  0
TEXT
  8
0
  6
CONTINUOUS
 40
0.100000
 10
287.008000
 20
41.338000
  1
2
  7
ROMANC
  0
TEXT
  8
0
  6
CONTINUOUS
 40
0.300000
 10
283.926000
 20
41.768000
  1
ESCALA  1:50
  7
ROMANC
  0
POLYLINE
  8
0
  6
CONTINUOUS
 66
     1
 70
     1
  0
VERTEX
  8
0
  6
CONTINUOUS
 10
281.396000
 20
44.747000
  0
VERTEX
  8
0
  6
CONTINUOUS
 10
291.896000
 20
44.747000
  0
VERTEX
  8
0
  6
CONTINUOUS
 10
291.896000
 20
29.897000
  0
VERTEX
  8
0
  6
CONTINUOUS
 10
281.396000
 20
29.897000
  0
SEQEND
  8
0
  0
TEXT
  8
0
  6
CONTINUOUS
 40
0.300000
 10
283.945000
 20
41.099000
  1
S = 470 dm
  7
ROMANC
  0
TEXT
  8
0
  6
CONTINUOUS
 40
0.300000
 10
283.922000
 20
40.529000
  1
P = 94 dm
  7
ROMANC
  0
TEXT
  8
0
  6
CONTINUOUS
 40
0.300000
 10
283.926000
 20
42.381000
  1
TIPUS   NT470
  7
ROMANC
  0
LINE
  8
1
  6
CONTINUOUS
 10
285.046000
 20
35.805000
 11
285.046000
 21
37.555000
  0
LINE
  8
1
  6
CONTINUOUS
 10
285.036000
 20
37.565000
 11
287.456000
 21
37.565000
  0
LINE
  8
1
  6
CONTINUOUS
 10
285.026000
 20
37.575000
 11
287.466000
 21
37.575000
  0
LINE
  8
1
  6
CONTINUOUS
 10
285.036000
 20
35.795000
 11
285.036000
 21
37.565000
  0
LINE
  8
1
  6
CONTINUOUS
 10
285.026000
 20
35.785000
 11
285.026000
 21
37.575000
  0
LINE
  8
1
  6
CONTINUOUS
 10
285.836000
 20
35.795000
 11
285.036000
 21
35.795000
  0
LINE
  8
1
  6
CONTINUOUS
 10
285.826000
 20
35.785000
 11
285.026000
 21
35.785000
  0
POLYLINE
  8
1
  6
CONTINUOUS
 66
     1
 70
     0
  0
VERTEX
  8
1
  6
CONTINUOUS
 10
285.835567
 20
35.795000
 42
0.017895
  0
VERTEX
  8
1
  6
CONTINUOUS
 10
285.840281
 20
35.681606
 42
0.018790
  0
VERTEX
  8
1
  6
CONTINUOUS
 10
285.853285
 20
35.568872
 42
0.019363
  0
VERTEX
  8
1
  6
CONTINUOUS
 10
285.873487
 20
35.464177
 42
0.022281
  0
VERTEX
  8
1
  6
CONTINUOUS
 10
285.902306
 20
35.361556
 42
0.023649
  0
VERTEX
  8
1
  6
CONTINUOUS
 10
285.935937
 20
35.273498
 42
0.029840
  0
VERTEX
  8
1
  6
CONTINUOUS
 10
285.978719
 20
35.189596
 42
0.032627
  0
VERTEX
  8
1
  6
CONTINUOUS
 10
286.022924
 20
35.124343
 42
0.044201
  0
VERTEX
  8
1
  6
CONTINUOUS
 10
286.076425
 20
35.066717
 42
0.049333
  0
VERTEX
  8
1
  6
CONTINUOUS
 10
286.128542
 20
35.028379
 42
0.064209
  0
VERTEX
  8
1
  6
CONTINUOUS
 10
286.187626
 20
35.002724
 42
0.068474
  0
VERTEX
  8
1
  6
CONTINUOUS
 10
286.245538
 20
34.994868
 42
0.068474
  0
VERTEX
  8
1
  6
CONTINUOUS
 10
286.303450
 20
35.002724
 42
0.064209
  0
VERTEX
  8
1
  6
CONTINUOUS
 10
286.362533
 20
35.028379
 42
0.049333
  0
VERTEX
  8
1
  6
CONTINUOUS
 10
286.414651
 20
35.066717
 42
0.044201
  0
VERTEX
  8
1
  6
CONTINUOUS
 10
286.468151
 20
35.124343
 42
0.032627
  0
VERTEX
  8
1
  6
CONTINUOUS
 10
286.512357
 20
35.189596
 42
0.029840
  0
VERTEX
  8
1
  6
CONTINUOUS
 10
286.555138
 20
35.273498
 42
0.023649
  0
VERTEX
  8
1
  6
CONTINUOUS
 10
286.588770
 20
35.361556
 42
0.022281
  0
VERTEX
  8
1
  6
CONTINUOUS
 10
286.617589
 20
35.464177
 42
0.019363
  0
VERTEX
  8
1
  6
CONTINUOUS
 10
286.637791
 20
35.568872
 42
0.018790
  0
VERTEX
  8
1
  6
CONTINUOUS
 10
286.650795
 20
35.681606
 42
0.017895
  0
VERTEX
  8
1
  6
CONTINUOUS
 10
286.655509
 20
35.795000
  0
SEQEND
  8
0
  0
POLYLINE
  8
1
  6
CONTINUOUS
 66
     1
 70
     0
  0
VERTEX
  8
1
  6
CONTINUOUS
 10
285.825658
 20
35.785000
 42
0.017985
  0
VERTEX
  8
1
  6
CONTINUOUS
 10
285.831117
 20
35.671257
 42
0.018935
  0
VERTEX
  8
1
  6
CONTINUOUS
 10
285.844942
 20
35.558237
 42
0.019523
  0
VERTEX
  8
1
  6
CONTINUOUS
 10
285.865978
 20
35.453453
 42
0.022474
  0
VERTEX
  8
1
  6
CONTINUOUS
 10
285.895707
 20
35.350834
 42
0.023849
  0
VERTEX
  8
1
  6
CONTINUOUS
 10
285.930234
 20
35.262820
 42
0.030013
  0
VERTEX
  8
1
  6
CONTINUOUS
 10
285.973962
 20
35.179090
 42
0.032775
  0
VERTEX
  8
1
  6
CONTINUOUS
 10
286.019122
 20
35.113909
 42
0.044086
  0
VERTEX
  8
1
  6
CONTINUOUS
 10
286.073558
 20
35.056500
 42
0.049048
  0
VERTEX
  8
1
  6
CONTINUOUS
 10
286.126676
 20
35.018225
 42
0.063218
  0
VERTEX
  8
1
  6
CONTINUOUS
 10
286.186669
 20
34.992698
 42
0.067211
  0
VERTEX
  8
1
  6
CONTINUOUS
 10
286.245538
 20
34.984857
 42
0.067211
  0
VERTEX
  8
1
  6
CONTINUOUS
 10
286.304406
 20
34.992698
 42
0.063218
  0
VERTEX
  8
1
  6
CONTINUOUS
 10
286.364399
 20
35.018225
 42
0.049048
  0
VERTEX
  8
1
  6
CONTINUOUS
 10
286.417517
 20
35.056500
 42
0.044086
  0
VERTEX
  8
1
  6
CONTINUOUS
 10
286.471954
 20
35.113909
 42
0.032775
  0
VERTEX
  8
1
  6
CONTINUOUS
 10
286.517114
 20
35.179090
 42
0.030013
  0
VERTEX
  8
1
  6
CONTINUOUS
 10
286.560842
 20
35.262820
 42
0.023849
  0
VERTEX
  8
1
  6
CONTINUOUS
 10
286.595369
 20
35.350834
 42
0.022474
  0
VERTEX
  8
1
  6
CONTINUOUS
 10
286.625098
 20
35.453453
 42
0.019523
  0
VERTEX
  8
1
  6
CONTINUOUS
 10
286.646133
 20
35.558237
 42
0.018935
  0
VERTEX
  8
1
  6
CONTINUOUS
 10
286.659958
 20
35.671257
 42
0.017985
  0
VERTEX
  8
1
  6
CONTINUOUS
 10
286.665418
 20
35.785000
  0
SEQEND
  8
0
  0
LINE
  8
1
  6
CONTINUOUS
 10
287.456000
 20
35.795000
 11
286.656000
 21
35.795000
  0
LINE
  8
1
  6
CONTINUOUS
 10
287.466000
 20
35.785000
 11
286.665000
 21
35.785000
  0
LINE
  8
1
  6
CONTINUOUS
 10
287.456000
 20
37.565000
 11
287.456000
 21
35.795000
  0
LINE
  8
1
  6
CONTINUOUS
 10
287.466000
 20
37.575000
 11
287.466000
 21
35.785000
  0
LINE
  8
1
  6
CONTINUOUS
 10
285.846000
 20
35.805000
 11
285.046000
 21
35.805000
  0
LINE
  8
1
  6
CONTINUOUS
 10
287.446000
 20
35.805000
 11
286.646000
 21
35.805000
  0
TEXT
  8
1
  6
CONTINUOUS
 40
0.075000
 10
286.109000
 20
34.652000
  1
0.80
  7
ROMANC
  0
LINE
  8
1
  6
CONTINUOUS
 10
286.071000
 20
34.690000
 11
285.846000
 21
34.690000
  0
LINE
  8
1
  6
CONTINUOUS
 10
286.420000
 20
34.690000
 11
286.646000
 21
34.690000
  0
LINE
  8
1
  6
CONTINUOUS
 10
285.808000
 20
34.671000
 11
285.884000
 21
34.709000
  0
LINE
  8
1
  6
CONTINUOUS
 10
286.684000
 20
34.709000
 11
286.608000
 21
34.671000
  0
LINE
  8
1
  6
CONTINUOUS
 10
285.846000
 20
35.767000
 11
285.846000
 21
34.652000
  0
LINE
  8
1
  6
CONTINUOUS
 10
286.646000
 20
35.767000
 11
286.646000
 21
34.652000
  0
POLYLINE
  8
1
  6
CONTINUOUS
 66
     1
 70
     0
  0
VERTEX
  8
1
  6
CONTINUOUS
 10
285.845538
 20
35.804606
 42
0.017797
  0
VERTEX
  8
1
  6
CONTINUOUS
 10
285.849536
 20
35.691614
 42
0.018637
  0
VERTEX
  8
1
  6
CONTINUOUS
 10
285.861740
 20
35.579221
 42
0.019194
  0
VERTEX
  8
1
  6
CONTINUOUS
 10
285.881121
 20
35.474667
 42
0.022078
  0
VERTEX
  8
1
  6
CONTINUOUS
 10
285.909035
 20
35.372095
 42
0.023437
  0
VERTEX
  8
1
  6
CONTINUOUS
 10
285.941768
 20
35.284038
 42
0.029652
  0
VERTEX
  8
1
  6
CONTINUOUS
 10
285.983591
 20
35.200008
 42
0.032461
  0
VERTEX
  8
1
  6
CONTINUOUS
 10
286.026828
 20
35.134716
 42
0.044295
  0
VERTEX
  8
1
  6
CONTINUOUS
 10
286.079368
 20
35.076901
 42
0.049599
  0
VERTEX
  8
1
  6
CONTINUOUS
 10
286.130461
 20
35.038521
 42
0.065216
  0
VERTEX
  8
1
  6
CONTINUOUS
 10
286.188607
 20
35.012748
 42
0.069774
  0
VERTEX
  8
1
  6
CONTINUOUS
 10
286.245532
 20
35.004880
 42
0.069775
  0
VERTEX
  8
1
  6
CONTINUOUS
 10
286.302458
 20
35.012745
 42
0.065218
  0
VERTEX
  8
1
  6
CONTINUOUS
 10
286.360604
 20
35.038515
 42
0.049601
  0
VERTEX
  8
1
  6
CONTINUOUS
 10
286.411698
 20
35.076892
 42
0.044297
  0
VERTEX
  8
1
  6
CONTINUOUS
 10
286.464239
 20
35.134705
 42
0.032462
  0
VERTEX
  8
1
  6
CONTINUOUS
 10
286.507477
 20
35.199994
 42
0.029653
  0
VERTEX
  8
1
  6
CONTINUOUS
 10
286.549301
 20
35.284022
 42
0.023438
  0
VERTEX
  8
1
  6
CONTINUOUS
 10
286.582035
 20
35.372077
 42
0.022079
  0
VERTEX
  8
1
  6
CONTINUOUS
 10
286.609951
 20
35.474647
 42
0.019195
  0
VERTEX
  8
1
  6
CONTINUOUS
 10
286.629333
 20
35.579201
 42
0.018637
  0
VERTEX
  8
1
  6
CONTINUOUS
 10
286.641538
 20
35.691593
 42
0.017797
  0
VERTEX
  8
1
  6
CONTINUOUS
 10
286.645538
 20
35.804585
  0
SEQEND
  8
0
  0
TEXT
  8
1
  6
CONTINUOUS
 40
0.075000
 10
288.386000
 20
35.269000
  1
0.80
 50
90.000000
  7
ROMANC
  0
LINE
  8
1
  6
CONTINUOUS
 10
288.349000
 20
35.580000
 11
288.349000
 21
35.805000
  0
LINE
  8
1
  6
CONTINUOUS
 10
288.349000
 20
35.231000
 11
288.349000
 21
35.005000
  0
LINE
  8
1
  6
CONTINUOUS
 10
288.330000
 20
35.842000
 11
288.368000
 21
35.768000
  0
LINE
  8
1
  6
CONTINUOUS
 10
288.368000
 20
34.968000
 11
288.330000
 21
35.042000
  0
LINE
  8
1
  6
CONTINUOUS
 10
286.684000
 20
35.805000
 11
288.387000
 21
35.805000
  0
LINE
  8
1
  6
CONTINUOUS
 10
286.284000
 20
35.005000
 11
288.387000
 21
35.005000
  0
TEXT
  8
1
  6
CONTINUOUS
 40
0.075000
 10
286.109000
 20
34.242000
  1
2.40
  7
ROMANC
  0
LINE
  8
1
  6
CONTINUOUS
 10
286.071000
 20
34.280000
 11
285.046000
 21
34.280000
  0
LINE
  8
1
  6
CONTINUOUS
 10
286.420000
 20
34.280000
 11
287.446000
 21
34.280000
  0
LINE
  8
1
  6
CONTINUOUS
 10
285.008000
 20
34.261000
 11
285.084000
 21
34.299000
  0
LINE
  8
1
  6
CONTINUOUS
 10
287.484000
 20
34.299000
 11
287.408000
 21
34.261000
  0
LINE
  8
1
  6
CONTINUOUS
 10
285.046000
 20
35.767000
 11
285.046000
 21
34.242000
  0
LINE
  8
1
  6
CONTINUOUS
 10
287.446000
 20
35.767000
 11
287.446000
 21
34.242000
  0
LINE
  8
1
  6
CONTINUOUS
 10
287.446000
 20
37.555000
 11
287.446000
 21
35.805000
  0
LINE
  8
1
  6
CONTINUOUS
 10
285.046000
 20
37.555000
 11
287.446000
 21
37.555000
  0
TEXT
  8
1
  6
CONTINUOUS
 40
0.075000
 10
288.626000
 20
36.543000
  1
1.75
 50
90.000000
  7
ROMANC
  0
LINE
  8
1
  6
CONTINUOUS
 10
288.589000
 20
36.505000
 11
288.589000
 21
35.805000
  0
LINE
  8
1
  6
CONTINUOUS
 10
288.589000
 20
36.854000
 11
288.589000
 21
37.555000
  0
LINE
  8
1
  6
CONTINUOUS
 10
288.608000
 20
35.768000
 11
288.570000
 21
35.842000
  0
LINE
  8
1
  6
CONTINUOUS
 10
288.570000
 20
37.592000
 11
288.608000
 21
37.518000
  0
LINE
  8
1
  6
CONTINUOUS
 10
287.484000
 20
35.805000
 11
288.627000
 21
35.805000
  0
LINE
  8
1
  6
CONTINUOUS
 10
287.484000
 20
37.555000
 11
288.627000
 21
37.555000
  0
TEXT
  8
1
  6
CONTINUOUS
 40
0.075000
 10
288.894000
 20
36.143000
  1
2.55
 50
90.000000
  7
ROMANC
  0
LINE
  8
1
  6
CONTINUOUS
 10
288.857000
 20
36.105000
 11
288.857000
 21
35.005000
  0
LINE
  8
1
  6
CONTINUOUS
 10
288.857000
 20
36.454000
 11
288.857000
 21
37.555000
  0
LINE
  8
1
  6
CONTINUOUS
 10
288.876000
 20
34.968000
 11
288.838000
 21
35.042000
  0
LINE
  8
1
  6
CONTINUOUS
 10
288.838000
 20
37.592000
 11
288.876000
 21
37.518000
  0
LINE
  8
1
  6
CONTINUOUS
 10
286.322000
 20
35.005000
 11
288.895000
 21
35.005000
  0
LINE
  8
1
  6
CONTINUOUS
 10
288.306000
 20
37.555000
 11
288.895000
 21
37.555000
  0
ENDSEC
  0
EOF
