  0
SECTION
  2
HEADER
  9
$ACADVER
  1
AC1009
  9
$INSBASE
 10
0.0
 20
0.0
 30
0.0
  9
$EXTMIN
 10
281.396000
 20
29.897000
 30
-2147483.648000
  9
$EXTMAX
 10
291.896000
 20
44.747000
 30
0.000000
  9
$LIMMIN
 10
280.396000
 20
28.897000
  9
$LIMMAX
 10
292.896000
 20
43.747000
  9
$ORTHOMODE
 70
     0
  9
$REGENMODE
 70
     1
  9
$FILLMODE
 70
     1
  9
$QTEXTMODE
 70
     0
  9
$MIRRTEXT
 70
     1
  9
$DRAGMODE
 70
     2
  9
$LTSCALE
 40
1.0
  9
$OSMODE
 70
     0
  9
$ATTMODE
 70
     1
  9
$TEXTSIZE
 40
0.2
  9
$TRACEWID
 40
0.05
  9
$TEXTSTYLE
  7
STANDARD
  9
$CLAYER
  8
0
  9
$CELTYPE
  6
BYLAYER
  9
$CECOLOR
 62
   256
  9
$DIMSCALE
 40
1.0
  9
$DIMASZ
 40
0.18
  9
$DIMEXO
 40
0.0625
  9
$DIMDLI
 40
0.38
  9
$DIMRND
 40
0.0
  9
$DIMDLE
 40
0.0
  9
$DIMEXE
 40
0.18
  9
$DIMTP
 40
0.0
  9
$DIMTM
 40
0.0
  9
$DIMTXT
 40
0.18
  9
$DIMCEN
 40
0.09
  9
$DIMTSZ
 40
0.0
  9
$DIMTOL
 70
     0
  9
$DIMLIM
 70
     0
  9
$DIMTIH
 70
     1
  9
$DIMTOH
 70
     1
  9
$DIMSE1
 70
     0
  9
$DIMSE2
 70
     0
  9
$DIMTAD
 70
     0
  9
$DIMZIN
 70
     0
  9
$DIMBLK
  1

  9
$DIMASO
 70
     1
  9
$DIMSHO
 70
     1
  9
$DIMPOST
  1

  9
$DIMAPOST
  1

  9
$DIMALT
 70
     0
  9
$DIMALTD
 70
     2
  9
$DIMALTF
 40
25.4
  9
$DIMLFAC
 40
1.0
  9
$DIMTOFL
 70
     0
  9
$DIMTVP
 40
0.0
  9
$DIMTIX
 70
     0
  9
$DIMSOXD
 70
     0
  9
$DIMSAH
 70
     0
  9
$DIMBLK1
  1

  9
$DIMBLK2
  1

  9
$DIMSTYLE
  2
*UNNAMED
  9
$DIMCLRD
 70
     0
  9
$DIMCLRE
 70
     0
  9
$DIMCLRT
 70
     0
  9
$DIMTFAC
 40
1.0
  9
$DIMGAP
 40
0.09
  9
$LUNITS
 70
     2
  9
$LUPREC
 70
     4
  9
$AXISMODE
 70
     0
  9
$AXISUNIT
 10
0.0
 20
0.0
  9
$SKETCHINC
 40
0.1
  9
$FILLETRAD
 40
0.0
  9
$AUNITS
 70
     0
  9
$AUPREC
 70
     0
  9
$MENU
  1
acad
  9
$ELEVATION
 40
0.0
  9
$PELEVATION
 40
0.0
  9
$THICKNESS
 40
0.0
  9
$LIMCHECK
 70
     0
  9
$BLIPMODE
 70
     1
  9
$CHAMFERA
 40
0.0
  9
$CHAMFERB
 40
0.0
  9
$SKPOLY
 70
     0
  9
$TDCREATE
 40
2448315.373408102
  9
$TDUPDATE
 40
2448315.373408102
  9
$TDINDWG
 40
0.0000000000
  9
$TDUSRTIMER
 40
0.0000000000
  9
$USRTIMER
 70
     1
  9
$ANGBASE
 50
0.0
  9
$ANGDIR
 70
     0
  9
$PDMODE
 70
     0
  9
$PDSIZE
 40
0.0
  9
$PLINEWID
 40
0.0
  9
$COORDS
 70
     0
  9
$SPLFRAME
 70
     0
  9
$SPLINETYPE
 70
     6
  9
$SPLINESEGS
 70
     8
  9
$ATTDIA
 70
     0
  9
$ATTREQ
 70
     1
  9
$HANDLING
 70
     0
  9
$HANDSEED
  5
0
  9
$SURFTAB1
 70
     6
  9
$SURFTAB2
 70
     6
  9
$SURFTYPE
 70
     6
  9
$SURFU
 70
     6
  9
$SURFV
 70
     6
  9
$UCSNAME
  2

  9
$UCSORG
 10
0.0
 20
0.0
 30
0.0
  9
$UCSXDIR
 10
1.0
 20
0.0
 30
0.0
  9
$UCSYDIR
 10
0.0
 20
1.0
 30
0.0
  9
$PUCSNAME
  2

  9
$PUCSORG
 10
0.0
 20
0.0
 30
0.0
  9
$PUCSXDIR
 10
1.0
 20
0.0
 30
0.0
  9
$PUCSYDIR
 10
0.0
 20
1.0
 30
0.0
  9
$USERI1
 70
     0
  9
$USERI2
 70
     0
  9
$USERI3
 70
     0
  9
$USERI4
 70
     0
  9
$USERI5
 70
     0
  9
$USERR1
 40
0.0
  9
$USERR2
 40
0.0
  9
$USERR3
 40
0.0
  9
$USERR4
 40
0.0
  9
$USERR5
 40
0.0
  9
$WORLDVIEW
 70
     1
  9
$SHADEDGE
 70
     3
  9
$SHADEDIF
 70
    70
  9
$TILEMODE
 70
     1
  9
$MAXACTVP
 70
    16
  9
$PINSBASE
 10
0.0
 20
0.0
 30
0.0
  9
$PLIMCHECK
 70
     0
  9
$PEXTMIN
 10
1.000000E+20
 20
1.000000E+20
 30
1.000000E+20
  9
$PEXTMAX
 10
-1.000000E+20
 20
-1.000000E+20
 30
-1.000000E+20
  9
$PLIMMIN
 10
0.0
 20
0.0
  9
$PLIMMAX
 10
12.0
 20
9.0
  9
$UNITMODE
 70
     0
  9
$VISRETAIN
 70
     0
  0
ENDSEC
  0
SECTION
  2
TABLES
  0
TABLE
  2
LTYPE
 70
    1
  0
LTYPE
  2
CONTINUOUS
 70
    64
3
Solid line
 72
    65
 73
0
 40
0.000000
  0
ENDTAB
  0
TABLE
  2
LAYER
 70
    8
  0
LAYER
  2
0
 70
    64
 62
7
  6
CONTINUOUS
  0
LAYER
  2
1
 70
    64
 62
7
  6
CONTINUOUS
  0
LAYER
  2
7
 70
    64
 62
7
  6
CONTINUOUS
  0
LAYER
  2
8
 70
    64
 62
7
  6
CONTINUOUS
  0
LAYER
  2
9
 70
    64
 62
7
  6
CONTINUOUS
  0
LAYER
  2
22
 70
    64
 62
7
  6
CONTINUOUS
  0
LAYER
  2
25
 70
    64
 62
7
  6
CONTINUOUS
  0
LAYER
  2
0
 70
    64
 62
7
  6
CONTINUOUS
  0
ENDTAB
  0
TABLE
  2
STYLE
 70
    1
  0
STYLE
  2
ROMANC
70
     0
 40
0.0
 41
1.0
 50
0.0
 71
     0
 42
0.2
  3
ROMANC
  4

  0
ENDTAB
  0
ENDSEC
  0
SECTION
  2
BLOCKS
  0
ENDSEC
  0
SECTION
  2
ENTITIES
  0
TEXT
  8
0
  6
CONTINUOUS
 40
0.100000
 10
286.909000
 20
41.324000
  1
2
  7
ROMANC
  0
TEXT
  8
0
  6
CONTINUOUS
 40
0.300000
 10
283.926000
 20
41.768000
  1
ESCALA  1:50
  7
ROMANC
  0
POLYLINE
  8
0
  6
CONTINUOUS
 66
     1
 70
     1
  0
VERTEX
  8
0
  6
CONTINUOUS
 10
281.396000
 20
44.747000
  0
VERTEX
  8
0
  6
CONTINUOUS
 10
291.896000
 20
44.747000
  0
VERTEX
  8
0
  6
CONTINUOUS
 10
291.896000
 20
29.897000
  0
VERTEX
  8
0
  6
CONTINUOUS
 10
281.396000
 20
29.897000
  0
SEQEND
  8
0
  0
TEXT
  8
0
  6
CONTINUOUS
 40
0.300000
 10
283.926000
 20
42.381000
  1
TIPUS   NT463A
  7
ROMANC
  0
TEXT
  8
0
  6
CONTINUOUS
 40
0.300000
 10
283.945000
 20
41.099000
  1
S = 463 dm
  7
ROMANC
  0
TEXT
  8
0
  6
CONTINUOUS
 40
0.300000
 10
283.922000
 20
40.529000
  1
P = 86.3 dm
  7
ROMANC
  0
LINE
  8
1
  6
CONTINUOUS
 10
285.389000
 20
33.455000
 11
285.389000
 21
34.055000
  0
ARC
  8
1
  6
CONTINUOUS
 10
287.850042
 20
34.031797
 40
0.489508
 50
2.716842
 51
46.013519
  0
ARC
  8
1
  6
CONTINUOUS
 10
285.877958
 20
34.031797
 40
0.489508
 50
133.986481
 51
177.283158
  0
ARC
  8
1
  6
CONTINUOUS
 10
286.864000
 20
33.250649
 40
1.744351
 50
40.520983
 51
139.479019
  0
LINE
  8
1
  6
CONTINUOUS
 10
287.339000
 20
33.455000
 11
287.594000
 21
33.455000
  0
ARC
  8
1
  6
CONTINUOUS
 10
287.578624
 20
33.406532
 40
0.050848
 50
21.296539
 51
72.398683
  0
ARC
  8
1
  6
CONTINUOUS
 10
287.673376
 20
33.406532
 40
0.050848
 50
107.601317
 51
158.703461
  0
LINE
  8
1
  6
CONTINUOUS
 10
287.659000
 20
33.455000
 11
287.997000
 21
33.455000
  0
LINE
  8
1
  6
CONTINUOUS
 10
288.061000
 20
33.455000
 11
288.339000
 21
33.455000
  0
ARC
  8
1
  6
CONTINUOUS
 10
287.981624
 20
33.406532
 40
0.050848
 50
21.296539
 51
72.398683
  0
ARC
  8
1
  6
CONTINUOUS
 10
288.076376
 20
33.406532
 40
0.050848
 50
107.601317
 51
158.703461
  0
LINE
  8
1
  6
CONTINUOUS
 10
285.439000
 20
33.155000
 11
287.339000
 21
33.155000
  0
TEXT
  8
1
  6
CONTINUOUS
 40
0.075000
 10
286.279000
 20
32.892000
  1
1.90
  7
ROMANC
  0
LINE
  8
1
  6
CONTINUOUS
 10
286.241000
 20
32.929000
 11
285.439000
 21
32.929000
  0
LINE
  8
1
  6
CONTINUOUS
 10
286.536000
 20
32.929000
 11
287.339000
 21
32.929000
  0
LINE
  8
1
  6
CONTINUOUS
 10
285.402000
 20
32.910000
 11
285.476000
 21
32.948000
  0
LINE
  8
1
  6
CONTINUOUS
 10
287.376000
 20
32.948000
 11
287.302000
 21
32.910000
  0
LINE
  8
1
  6
CONTINUOUS
 10
285.439000
 20
33.117000
 11
285.439000
 21
32.891000
  0
LINE
  8
1
  6
CONTINUOUS
 10
287.339000
 20
33.117000
 11
287.339000
 21
32.891000
  0
LINE
  8
1
  6
CONTINUOUS
 10
287.339000
 20
33.155000
 11
287.339000
 21
33.455000
  0
LINE
  8
1
  6
CONTINUOUS
 10
288.339000
 20
33.455000
 11
288.339000
 21
34.055000
  0
TEXT
  8
1
  6
CONTINUOUS
 40
0.075000
 10
287.729000
 20
32.892000
  1
1.00
  7
ROMANC
  0
LINE
  8
1
  6
CONTINUOUS
 10
287.691000
 20
32.929000
 11
287.339000
 21
32.929000
  0
LINE
  8
1
  6
CONTINUOUS
 10
287.986000
 20
32.929000
 11
288.339000
 21
32.929000
  0
LINE
  8
1
  6
CONTINUOUS
 10
287.302000
 20
32.910000
 11
287.376000
 21
32.948000
  0
LINE
  8
1
  6
CONTINUOUS
 10
288.376000
 20
32.948000
 11
288.302000
 21
32.910000
  0
LINE
  8
1
  6
CONTINUOUS
 10
287.339000
 20
33.117000
 11
287.339000
 21
32.891000
  0
LINE
  8
1
  6
CONTINUOUS
 10
288.339000
 20
33.417000
 11
288.339000
 21
32.891000
  0
ARC
  8
1
  6
CONTINUOUS
 10
287.444206
 20
33.643368
 40
2.063820
 50
185.236753
 51
193.687894
  0
TEXT
  8
1
  6
CONTINUOUS
 40
0.075000
 10
285.206000
 20
33.193000
  1
0.30
 50
90.000000
  7
ROMANC
  0
LINE
  8
1
  6
CONTINUOUS
 10
285.168000
 20
33.005000
 11
285.168000
 21
33.155000
  0
LINE
  8
1
  6
CONTINUOUS
 10
285.168000
 20
33.605000
 11
285.168000
 21
33.455000
  0
LINE
  8
1
  6
CONTINUOUS
 10
285.149000
 20
33.192000
 11
285.187000
 21
33.118000
  0
LINE
  8
1
  6
CONTINUOUS
 10
285.187000
 20
33.418000
 11
285.149000
 21
33.492000
  0
LINE
  8
1
  6
CONTINUOUS
 10
285.401000
 20
33.155000
 11
285.130000
 21
33.155000
  0
LINE
  8
1
  6
CONTINUOUS
 10
285.351000
 20
33.455000
 11
285.130000
 21
33.455000
  0
TEXT
  8
1
  6
CONTINUOUS
 40
0.075000
 10
288.650000
 20
33.636000
  1
0.60
 50
90.000000
  7
ROMANC
  0
LINE
  8
1
  6
CONTINUOUS
 10
288.613000
 20
33.305000
 11
288.613000
 21
33.455000
  0
LINE
  8
1
  6
CONTINUOUS
 10
288.613000
 20
34.205000
 11
288.613000
 21
34.055000
  0
LINE
  8
1
  6
CONTINUOUS
 10
288.594000
 20
33.492000
 11
288.632000
 21
33.418000
  0
LINE
  8
1
  6
CONTINUOUS
 10
288.632000
 20
34.018000
 11
288.594000
 21
34.092000
  0
LINE
  8
1
  6
CONTINUOUS
 10
288.377000
 20
33.455000
 11
288.651000
 21
33.455000
  0
LINE
  8
1
  6
CONTINUOUS
 10
288.377000
 20
34.055000
 11
288.651000
 21
34.055000
  0
TEXT
  8
1
  6
CONTINUOUS
 40
0.075000
 10
288.650000
 20
34.403000
  1
0.94
 50
90.000000
  7
ROMANC
  0
LINE
  8
1
  6
CONTINUOUS
 10
288.613000
 20
34.365000
 11
288.613000
 21
34.055000
  0
LINE
  8
1
  6
CONTINUOUS
 10
288.613000
 20
34.684000
 11
288.613000
 21
34.995000
  0
LINE
  8
1
  6
CONTINUOUS
 10
288.632000
 20
34.018000
 11
288.594000
 21
34.092000
  0
LINE
  8
1
  6
CONTINUOUS
 10
288.594000
 20
35.032000
 11
288.632000
 21
34.958000
  0
LINE
  8
1
  6
CONTINUOUS
 10
286.902000
 20
34.995000
 11
288.651000
 21
34.995000
  0
TEXT
  8
1
  6
CONTINUOUS
 40
0.075000
 10
289.016000
 20
33.962000
  1
1.84
 50
90.000000
  7
ROMANC
  0
LINE
  8
1
  6
CONTINUOUS
 10
288.978000
 20
33.924000
 11
288.978000
 21
33.155000
  0
LINE
  8
1
  6
CONTINUOUS
 10
288.978000
 20
34.226000
 11
288.978000
 21
34.995000
  0
LINE
  8
1
  6
CONTINUOUS
 10
288.997000
 20
33.118000
 11
288.959000
 21
33.192000
  0
LINE
  8
1
  6
CONTINUOUS
 10
288.959000
 20
35.032000
 11
288.997000
 21
34.958000
  0
LINE
  8
1
  6
CONTINUOUS
 10
287.377000
 20
33.155000
 11
289.016000
 21
33.155000
  0
LINE
  8
1
  6
CONTINUOUS
 10
286.902000
 20
34.995000
 11
289.016000
 21
34.995000
  0
ARC
  8
1
  6
CONTINUOUS
 10
286.864000
 20
33.250649
 40
1.754351
 50
40.520983
 51
139.479019
  0
ARC
  8
1
  6
CONTINUOUS
 10
286.864000
 20
33.250649
 40
1.764351
 50
40.520983
 51
139.479019
  0
ARC
  8
1
  6
CONTINUOUS
 10
287.850042
 20
34.031797
 40
0.499508
 50
2.716842
 51
46.013519
  0
ARC
  8
1
  6
CONTINUOUS
 10
287.850042
 20
34.031797
 40
0.509508
 50
2.716842
 51
46.013519
  0
LINE
  8
1
  6
CONTINUOUS
 10
288.349000
 20
33.445000
 11
288.349000
 21
34.055000
  0
LINE
  8
1
  6
CONTINUOUS
 10
288.359000
 20
33.435000
 11
288.359000
 21
34.055000
  0
LINE
  8
1
  6
CONTINUOUS
 10
288.063000
 20
33.445000
 11
288.349000
 21
33.445000
  0
LINE
  8
1
  6
CONTINUOUS
 10
288.064000
 20
33.435000
 11
288.359000
 21
33.435000
  0
LINE
  8
1
  6
CONTINUOUS
 10
287.660000
 20
33.445000
 11
287.995000
 21
33.445000
  0
LINE
  8
1
  6
CONTINUOUS
 10
287.661000
 20
33.435000
 11
287.994000
 21
33.435000
  0
LINE
  8
1
  6
CONTINUOUS
 10
287.349000
 20
33.445000
 11
287.592000
 21
33.445000
  0
LINE
  8
1
  6
CONTINUOUS
 10
287.359000
 20
33.435000
 11
287.591000
 21
33.435000
  0
LINE
  8
1
  6
CONTINUOUS
 10
287.349000
 20
33.145000
 11
287.349000
 21
33.445000
  0
LINE
  8
1
  6
CONTINUOUS
 10
287.359000
 20
33.135000
 11
287.359000
 21
33.435000
  0
LINE
  8
1
  6
CONTINUOUS
 10
285.439000
 20
33.145000
 11
287.349000
 21
33.145000
  0
LINE
  8
1
  6
CONTINUOUS
 10
285.439000
 20
33.135000
 11
287.359000
 21
33.135000
  0
ARC
  8
1
  6
CONTINUOUS
 10
287.444206
 20
33.643368
 40
2.073820
 50
185.236753
 51
193.687894
  0
ARC
  8
1
  6
CONTINUOUS
 10
287.444206
 20
33.643368
 40
2.083820
 50
185.236753
 51
193.687894
  0
LINE
  8
1
  6
CONTINUOUS
 10
285.379000
 20
33.455000
 11
285.379000
 21
34.055000
  0
LINE
  8
1
  6
CONTINUOUS
 10
285.369000
 20
33.455000
 11
285.369000
 21
34.055000
  0
ARC
  8
1
  6
CONTINUOUS
 10
285.877958
 20
34.031797
 40
0.499508
 50
133.986481
 51
177.283158
  0
ARC
  8
1
  6
CONTINUOUS
 10
285.877958
 20
34.031797
 40
0.509508
 50
133.986481
 51
177.283158
  0
ARC
  8
1
  6
CONTINUOUS
 10
287.578624
 20
33.406532
 40
0.040848
 50
381.296539
 51
430.342911
  0
ARC
  8
1
  6
CONTINUOUS
 10
287.578624
 20
33.406532
 40
0.030848
 50
381.296539
 51
427.343567
  0
ARC
  8
1
  6
CONTINUOUS
 10
287.673376
 20
33.406532
 40
0.040848
 50
109.657089
 51
158.703461
  0
ARC
  8
1
  6
CONTINUOUS
 10
287.673376
 20
33.406532
 40
0.030848
 50
112.656433
 51
158.703461
  0
ARC
  8
1
  6
CONTINUOUS
 10
287.981624
 20
33.406532
 40
0.040848
 50
381.296539
 51
430.342911
  0
ARC
  8
1
  6
CONTINUOUS
 10
287.981624
 20
33.406532
 40
0.030848
 50
381.296539
 51
427.343567
  0
ARC
  8
1
  6
CONTINUOUS
 10
288.076376
 20
33.406532
 40
0.040848
 50
109.657089
 51
158.703461
  0
ARC
  8
1
  6
CONTINUOUS
 10
288.076376
 20
33.406532
 40
0.030848
 50
112.656433
 51
158.703461
  0
LINE
  8
1
  6
CONTINUOUS
 10
287.617000
 20
33.421000
 11
287.626000
 21
33.404000
  0
LINE
  8
1
  6
CONTINUOUS
 10
287.626000
 20
33.404000
 11
287.635000
 21
33.421000
  0
LINE
  8
1
  6
CONTINUOUS
 10
287.607000
 20
33.418000
 11
287.626000
 21
33.385000
  0
LINE
  8
1
  6
CONTINUOUS
 10
287.626000
 20
33.385000
 11
287.645000
 21
33.418000
  0
LINE
  8
1
  6
CONTINUOUS
 10
288.020000
 20
33.421000
 11
288.029000
 21
33.400000
  0
LINE
  8
1
  6
CONTINUOUS
 10
288.029000
 20
33.400000
 11
288.038000
 21
33.421000
  0
LINE
  8
1
  6
CONTINUOUS
 10
288.010000
 20
33.418000
 11
288.029000
 21
33.383000
  0
LINE
  8
1
  6
CONTINUOUS
 10
288.029000
 20
33.383000
 11
288.048000
 21
33.418000
  0
ENDSEC
  0
EOF
