  0
SECTION
  2
HEADER
  9
$ACADVER
  1
AC1009
  9
$INSBASE
 10
105.464027
 20
-4.528761
 30
0.0
  9
$EXTMIN
 10
281.395795
 20
29.897444
 30
0.0
  9
$EXTMAX
 10
291.895795
 20
44.747444
 30
0.0
  9
$LIMMIN
 10
0.0
 20
0.0
  9
$LIMMAX
 10
410.0
 20
287.0
  9
$ORTHOMODE
 70
     0
  9
$REGENMODE
 70
     1
  9
$FILLMODE
 70
     1
  9
$QTEXTMODE
 70
     0
  9
$MIRRTEXT
 70
     1
  9
$DRAGMODE
 70
     2
  9
$LTSCALE
 40
25.0
  9
$OSMODE
 70
    32
  9
$ATTMODE
 70
     1
  9
$TEXTSIZE
 40
0.1
  9
$TRACEWID
 40
1.0
  9
$TEXTSTYLE
  7
ROMANC
  9
$CLAYER
  8
0
  9
$CELTYPE
  6
BYLAYER
  9
$CECOLOR
 62
   256
  9
$DIMSCALE
 40
1.5
  9
$DIMASZ
 40
0.1
  9
$DIMEXO
 40
0.01
  9
$DIMDLI
 40
7.0
  9
$DIMRND
 40
0.0
  9
$DIMDLE
 40
0.0
  9
$DIMEXE
 40
0.01
  9
$DIMTP
 40
0.0
  9
$DIMTM
 40
0.0
  9
$DIMTXT
 40
0.05
  9
$DIMCEN
 40
0.1
  9
$DIMTSZ
 40
0.0
  9
$DIMTOL
 70
     0
  9
$DIMLIM
 70
     0
  9
$DIMTIH
 70
     0
  9
$DIMTOH
 70
     0
  9
$DIMSE1
 70
     0
  9
$DIMSE2
 70
     0
  9
$DIMTAD
 70
     1
  9
$DIMZIN
 70
     0
  9
$DIMBLK
  1

  9
$DIMASO
 70
     1
  9
$DIMSHO
 70
     0
  9
$DIMPOST
  1

  9
$DIMAPOST
  1

  9
$DIMALT
 70
     0
  9
$DIMALTD
 70
     2
  9
$DIMALTF
 40
25.4
  9
$DIMLFAC
 40
1.0
  9
$DIMTOFL
 70
     1
  9
$DIMTVP
 40
0.0
  9
$DIMTIX
 70
     1
  9
$DIMSOXD
 70
     0
  9
$DIMSAH
 70
     0
  9
$DIMBLK1
  1

  9
$DIMBLK2
  1

  9
$DIMSTYLE
  2
*UNNAMED
  9
$DIMCLRD
 70
     0
  9
$DIMCLRE
 70
     0
  9
$DIMCLRT
 70
     0
  9
$DIMTFAC
 40
70.0
  9
$DIMGAP
 40
0.09
  9
$LUNITS
 70
     2
  9
$LUPREC
 70
     2
  9
$SKETCHINC
 40
1.0
  9
$FILLETRAD
 40
0.0
  9
$AUNITS
 70
     0
  9
$AUPREC
 70
     0
  9
$MENU
  1
acad
  9
$ELEVATION
 40
0.0
  9
$PELEVATION
 40
0.0
  9
$THICKNESS
 40
0.0
  9
$LIMCHECK
 70
     0
  9
$BLIPMODE
 70
     0
  9
$CHAMFERA
 40
0.0
  9
$CHAMFERB
 40
0.0
  9
$SKPOLY
 70
     0
  9
$TDCREATE
 40
2450305.554557986
  9
$TDUPDATE
 40
2450730.439623263
  9
$TDINDWG
 40
0.0474908565
  9
$TDUSRTIMER
 40
0.0474908565
  9
$USRTIMER
 70
     1
  9
$ANGBASE
 50
0.0
  9
$ANGDIR
 70
     0
  9
$PDMODE
 70
     0
  9
$PDSIZE
 40
0.0
  9
$PLINEWID
 40
0.0
  9
$COORDS
 70
     2
  9
$SPLFRAME
 70
     0
  9
$SPLINETYPE
 70
     6
  9
$SPLINESEGS
 70
     8
  9
$ATTDIA
 70
     0
  9
$ATTREQ
 70
     1
  9
$HANDLING
 70
     0
  9
$HANDSEED
  5
0
  9
$SURFTAB1
 70
     6
  9
$SURFTAB2
 70
     6
  9
$SURFTYPE
 70
     6
  9
$SURFU
 70
     6
  9
$SURFV
 70
     6
  9
$UCSNAME
  2

  9
$UCSORG
 10
0.0
 20
0.0
 30
0.0
  9
$UCSXDIR
 10
1.0
 20
0.0
 30
0.0
  9
$UCSYDIR
 10
0.0
 20
1.0
 30
0.0
  9
$PUCSNAME
  2

  9
$PUCSORG
 10
0.0
 20
0.0
 30
0.0
  9
$PUCSXDIR
 10
1.0
 20
0.0
 30
0.0
  9
$PUCSYDIR
 10
0.0
 20
1.0
 30
0.0
  9
$USERI1
 70
     0
  9
$USERI2
 70
     0
  9
$USERI3
 70
     0
  9
$USERI4
 70
     0
  9
$USERI5
 70
     0
  9
$USERR1
 40
0.0
  9
$USERR2
 40
0.0
  9
$USERR3
 40
0.0
  9
$USERR4
 40
0.0
  9
$USERR5
 40
0.0
  9
$WORLDVIEW
 70
     1
  9
$SHADEDGE
 70
     3
  9
$SHADEDIF
 70
    70
  9
$TILEMODE
 70
     1
  9
$MAXACTVP
 70
    16
  9
$PINSBASE
 10
0.0
 20
0.0
 30
0.0
  9
$PLIMCHECK
 70
     0
  9
$PEXTMIN
 10
1.000000E+20
 20
1.000000E+20
 30
1.000000E+20
  9
$PEXTMAX
 10
-1.000000E+20
 20
-1.000000E+20
 30
-1.000000E+20
  9
$PLIMMIN
 10
0.0
 20
0.0
  9
$PLIMMAX
 10
12.0
 20
9.0
  9
$UNITMODE
 70
     0
  9
$VISRETAIN
 70
     0
  9
$PLINEGEN
 70
     0
  9
$PSLTSCALE
 70
     0
  9
$TREEDEPTH
 70
  3020
  9
$DWGCODEPAGE
  3
iso8859-1
  0
ENDSEC
  0
SECTION
  2
TABLES
  0
TABLE
  2
VPORT
 70
     2
  0
VPORT
  2
*ACTIVE
 70
     0
 10
0.0
 20
0.0
 11
1.0
 21
1.0
 12
293.610342
 22
37.479298
 13
0.0
 23
0.0
 14
1.0
 24
1.0
 15
10.0
 25
10.0
 16
0.0
 26
0.0
 36
1.0
 17
0.0
 27
0.0
 37
0.0
 40
15.163708
 41
1.611024
 42
50.0
 43
0.0
 44
0.0
 50
0.0
 51
0.0
 71
     0
 72
   100
 73
     1
 74
     0
 75
     0
 76
     0
 77
     0
 78
     1
  0
ENDTAB
  0
TABLE
  2
LTYPE
 70
     1
  0
LTYPE
  2
CONTINUOUS
 70
    64
  3
Solid line
 72
    65
 73
     0
 40
0.0
  0
ENDTAB
  0
TABLE
  2
LAYER
 70
     3
  0
LAYER
  2
0
 70
    64
 62
     7
  6
CONTINUOUS
  0
LAYER
  2
MESURA
 70
     0
 62
     7
  6
CONTINUOUS
  0
LAYER
  2
DEFPOINTS
 70
    64
 62
     7
  6
CONTINUOUS
  0
ENDTAB
  0
TABLE
  2
STYLE
 70
     2
  0
STYLE
  2
STANDARD
 70
     0
 40
0.0
 41
1.0
 50
0.0
 71
     0
 42
0.1
  3
txt
  4

  0
STYLE
  2
ROMANC
 70
    64
 40
0.0
 41
1.0
 50
0.0
 71
     0
 42
0.1
  3
romanc
  4

  0
ENDTAB
  0
TABLE
  2
VIEW
 70
     0
  0
ENDTAB
  0
TABLE
  2
UCS
 70
     0
  0
ENDTAB
  0
TABLE
  2
APPID
 70
     1
  0
APPID
  2
ACAD
 70
    64
  0
ENDTAB
  0
TABLE
  2
DIMSTYLE
 70
     1
  0
DIMSTYLE
  2
SILVIA
 70
     0
  3

  4

  5

  6

  7

 40
1.5
 41
0.1
 42
0.01
 43
7.0
 44
0.01
 45
0.0
 46
0.0
 47
0.0
 48
0.0
140
0.05
141
0.1
142
0.0
143
25.4
144
1.0
145
0.0
146
70.0
147
0.09
 71
     0
 72
     0
 73
     0
 74
     0
 75
     0
 76
     0
 77
     1
 78
     0
170
     0
171
     2
172
     1
173
     0
174
     1
175
     0
176
     0
177
     0
178
     0
  0
ENDTAB
  0
ENDSEC
  0
SECTION
  2
BLOCKS
  0
BLOCK
  8
0
  2
*D10
 70
    65
 10
0.0
 20
0.0
 30
0.0
  3
*D
  0
LINE
  8
0
  6
BYBLOCK
 62
     0
 10
285.033917
 20
34.329034
 30
0.0
 11
285.033917
 21
32.728207
 31
0.0
  0
LINE
  8
0
  6
BYBLOCK
 62
     0
 10
287.733917
 20
34.329034
 30
0.0
 11
287.733917
 21
32.728207
 31
0.0
  0
LINE
  8
0
  6
BYBLOCK
 62
     0
 10
285.183917
 20
32.743207
 30
0.0
 11
287.583917
 21
32.743207
 31
0.0
  0
SOLID
  8
0
  6
BYBLOCK
 62
     0
 10
285.183917
 20
32.768207
 30
0.0
 11
285.183917
 21
32.718207
 31
0.0
 12
285.033917
 22
32.743207
 32
0.0
 13
285.033917
 23
32.743207
 33
0.0
  0
SOLID
  8
0
  6
BYBLOCK
 62
     0
 10
287.583917
 20
32.768207
 30
0.0
 11
287.583917
 21
32.718207
 31
0.0
 12
287.733917
 22
32.743207
 32
0.0
 13
287.733917
 23
32.743207
 33
0.0
  0
TEXT
  8
0
  6
BYBLOCK
 62
     0
 10
286.258917
 20
32.780707
 30
0.0
 40
0.075
  1
2.70
  7
ROMANC
 72
     1
 11
286.383917
 21
32.818207
 31
0.0
 73
     2
  0
POINT
  8
DEFPOINTS
  6
BYBLOCK
 62
     0
 10
285.033917
 20
34.344034
 30
0.0
  0
POINT
  8
DEFPOINTS
  6
BYBLOCK
 62
     0
 10
287.733917
 20
34.344034
 30
0.0
  0
POINT
  8
DEFPOINTS
  6
BYBLOCK
 62
     0
 10
287.733917
 20
32.743207
 30
0.0
  0
ENDBLK
  8
0
  0
BLOCK
  8
0
  2
*D11
 70
    65
 10
0.0
 20
0.0
 30
0.0
  3
*D
  0
LINE
  8
0
  6
BYBLOCK
 62
     0
 10
285.033917
 20
34.329034
 30
0.0
 11
285.033917
 21
33.460683
 31
0.0
  0
LINE
  8
0
  6
BYBLOCK
 62
     0
 10
285.293917
 20
34.329034
 30
0.0
 11
285.293917
 21
33.460683
 31
0.0
  0
LINE
  8
0
  6
BYBLOCK
 62
     0
 10
284.883917
 20
33.475683
 30
0.0
 11
284.733917
 21
33.475683
 31
0.0
  0
LINE
  8
0
  6
BYBLOCK
 62
     0
 10
285.443917
 20
33.475683
 30
0.0
 11
285.593917
 21
33.475683
 31
0.0
  0
SOLID
  8
0
  6
BYBLOCK
 62
     0
 10
284.883917
 20
33.500683
 30
0.0
 11
284.883917
 21
33.450683
 31
0.0
 12
285.033917
 22
33.475683
 32
0.0
 13
285.033917
 23
33.475683
 33
0.0
  0
SOLID
  8
0
  6
BYBLOCK
 62
     0
 10
285.443917
 20
33.500683
 30
0.0
 11
285.443917
 21
33.450683
 31
0.0
 12
285.293917
 22
33.475683
 32
0.0
 13
285.293917
 23
33.475683
 33
0.0
  0
LINE
  8
0
  6
BYBLOCK
 62
     0
 10
285.033917
 20
33.475683
 30
0.0
 11
285.293917
 21
33.475683
 31
0.0
  0
TEXT
  8
0
  6
BYBLOCK
 62
     0
 10
285.038917
 20
33.513183
 30
0.0
 40
0.075
  1
0.26
  7
ROMANC
 72
     1
 11
285.163917
 21
33.550683
 31
0.0
 73
     2
  0
POINT
  8
DEFPOINTS
  6
BYBLOCK
 62
     0
 10
285.033917
 20
34.344034
 30
0.0
  0
POINT
  8
DEFPOINTS
  6
BYBLOCK
 62
     0
 10
285.293917
 20
34.344034
 30
0.0
  0
POINT
  8
DEFPOINTS
  6
BYBLOCK
 62
     0
 10
285.293917
 20
33.475683
 30
0.0
  0
ENDBLK
  8
0
  0
BLOCK
  8
0
  2
*D12
 70
    65
 10
0.0
 20
0.0
 30
0.0
  3
*D
  0
LINE
  8
0
  6
BYBLOCK
 62
     0
 10
285.293917
 20
34.329034
 30
0.0
 11
285.293917
 21
33.460683
 31
0.0
  0
LINE
  8
0
  6
BYBLOCK
 62
     0
 10
286.073917
 20
34.329034
 30
0.0
 11
286.073917
 21
33.460683
 31
0.0
  0
LINE
  8
0
  6
BYBLOCK
 62
     0
 10
285.143917
 20
33.475683
 30
0.0
 11
284.993917
 21
33.475683
 31
0.0
  0
LINE
  8
0
  6
BYBLOCK
 62
     0
 10
286.223917
 20
33.475683
 30
0.0
 11
286.373917
 21
33.475683
 31
0.0
  0
SOLID
  8
0
  6
BYBLOCK
 62
     0
 10
285.143917
 20
33.500683
 30
0.0
 11
285.143917
 21
33.450683
 31
0.0
 12
285.293917
 22
33.475683
 32
0.0
 13
285.293917
 23
33.475683
 33
0.0
  0
SOLID
  8
0
  6
BYBLOCK
 62
     0
 10
286.223917
 20
33.500683
 30
0.0
 11
286.223917
 21
33.450683
 31
0.0
 12
286.073917
 22
33.475683
 32
0.0
 13
286.073917
 23
33.475683
 33
0.0
  0
LINE
  8
0
  6
BYBLOCK
 62
     0
 10
285.293917
 20
33.475683
 30
0.0
 11
286.073917
 21
33.475683
 31
0.0
  0
TEXT
  8
0
  6
BYBLOCK
 62
     0
 10
285.558917
 20
33.513183
 30
0.0
 40
0.075
  1
0.78
  7
ROMANC
 72
     1
 11
285.683917
 21
33.550683
 31
0.0
 73
     2
  0
POINT
  8
DEFPOINTS
  6
BYBLOCK
 62
     0
 10
285.293917
 20
34.344034
 30
0.0
  0
POINT
  8
DEFPOINTS
  6
BYBLOCK
 62
     0
 10
286.073917
 20
34.344034
 30
0.0
  0
POINT
  8
DEFPOINTS
  6
BYBLOCK
 62
     0
 10
286.073917
 20
33.475683
 30
0.0
  0
ENDBLK
  8
0
  0
BLOCK
  8
0
  2
*D13
 70
    65
 10
0.0
 20
0.0
 30
0.0
  3
*D
  0
LINE
  8
0
  6
BYBLOCK
 62
     0
 10
286.073917
 20
34.329034
 30
0.0
 11
286.073917
 21
33.460683
 31
0.0
  0
LINE
  8
0
  6
BYBLOCK
 62
     0
 10
286.693917
 20
34.329034
 30
0.0
 11
286.693917
 21
33.460683
 31
0.0
  0
LINE
  8
0
  6
BYBLOCK
 62
     0
 10
285.923917
 20
33.475683
 30
0.0
 11
285.773917
 21
33.475683
 31
0.0
  0
LINE
  8
0
  6
BYBLOCK
 62
     0
 10
286.843917
 20
33.475683
 30
0.0
 11
286.993917
 21
33.475683
 31
0.0
  0
SOLID
  8
0
  6
BYBLOCK
 62
     0
 10
285.923917
 20
33.500683
 30
0.0
 11
285.923917
 21
33.450683
 31
0.0
 12
286.073917
 22
33.475683
 32
0.0
 13
286.073917
 23
33.475683
 33
0.0
  0
SOLID
  8
0
  6
BYBLOCK
 62
     0
 10
286.843917
 20
33.500683
 30
0.0
 11
286.843917
 21
33.450683
 31
0.0
 12
286.693917
 22
33.475683
 32
0.0
 13
286.693917
 23
33.475683
 33
0.0
  0
LINE
  8
0
  6
BYBLOCK
 62
     0
 10
286.073917
 20
33.475683
 30
0.0
 11
286.693917
 21
33.475683
 31
0.0
  0
TEXT
  8
0
  6
BYBLOCK
 62
     0
 10
286.258917
 20
33.513183
 30
0.0
 40
0.075
  1
0.62
  7
ROMANC
 72
     1
 11
286.383917
 21
33.550683
 31
0.0
 73
     2
  0
POINT
  8
DEFPOINTS
  6
BYBLOCK
 62
     0
 10
286.073917
 20
34.344034
 30
0.0
  0
POINT
  8
DEFPOINTS
  6
BYBLOCK
 62
     0
 10
286.693917
 20
34.344034
 30
0.0
  0
POINT
  8
DEFPOINTS
  6
BYBLOCK
 62
     0
 10
286.693917
 20
33.475683
 30
0.0
  0
ENDBLK
  8
0
  0
BLOCK
  8
0
  2
*D14
 70
    65
 10
0.0
 20
0.0
 30
0.0
  3
*D
  0
LINE
  8
0
  6
BYBLOCK
 62
     0
 10
286.693917
 20
34.329034
 30
0.0
 11
286.693917
 21
33.460683
 31
0.0
  0
LINE
  8
0
  6
BYBLOCK
 62
     0
 10
287.473917
 20
34.329034
 30
0.0
 11
287.473917
 21
33.460683
 31
0.0
  0
LINE
  8
0
  6
BYBLOCK
 62
     0
 10
286.543917
 20
33.475683
 30
0.0
 11
286.393917
 21
33.475683
 31
0.0
  0
LINE
  8
0
  6
BYBLOCK
 62
     0
 10
287.623917
 20
33.475683
 30
0.0
 11
287.773917
 21
33.475683
 31
0.0
  0
SOLID
  8
0
  6
BYBLOCK
 62
     0
 10
286.543917
 20
33.500683
 30
0.0
 11
286.543917
 21
33.450683
 31
0.0
 12
286.693917
 22
33.475683
 32
0.0
 13
286.693917
 23
33.475683
 33
0.0
  0
SOLID
  8
0
  6
BYBLOCK
 62
     0
 10
287.623917
 20
33.500683
 30
0.0
 11
287.623917
 21
33.450683
 31
0.0
 12
287.473917
 22
33.475683
 32
0.0
 13
287.473917
 23
33.475683
 33
0.0
  0
LINE
  8
0
  6
BYBLOCK
 62
     0
 10
286.693917
 20
33.475683
 30
0.0
 11
287.473917
 21
33.475683
 31
0.0
  0
TEXT
  8
0
  6
BYBLOCK
 62
     0
 10
286.958917
 20
33.513183
 30
0.0
 40
0.075
  1
0.78
  7
ROMANC
 72
     1
 11
287.083917
 21
33.550683
 31
0.0
 73
     2
  0
POINT
  8
DEFPOINTS
  6
BYBLOCK
 62
     0
 10
286.693917
 20
34.344034
 30
0.0
  0
POINT
  8
DEFPOINTS
  6
BYBLOCK
 62
     0
 10
287.473917
 20
34.344034
 30
0.0
  0
POINT
  8
DEFPOINTS
  6
BYBLOCK
 62
     0
 10
287.473917
 20
33.475683
 30
0.0
  0
ENDBLK
  8
0
  0
BLOCK
  8
0
  2
*D15
 70
    65
 10
0.0
 20
0.0
 30
0.0
  3
*D
  0
LINE
  8
0
  6
BYBLOCK
 62
     0
 10
287.473917
 20
34.329034
 30
0.0
 11
287.473917
 21
33.460683
 31
0.0
  0
LINE
  8
0
  6
BYBLOCK
 62
     0
 10
287.733917
 20
34.329034
 30
0.0
 11
287.733917
 21
33.460683
 31
0.0
  0
LINE
  8
0
  6
BYBLOCK
 62
     0
 10
287.323917
 20
33.475683
 30
0.0
 11
287.173917
 21
33.475683
 31
0.0
  0
LINE
  8
0
  6
BYBLOCK
 62
     0
 10
287.883917
 20
33.475683
 30
0.0
 11
288.033917
 21
33.475683
 31
0.0
  0
SOLID
  8
0
  6
BYBLOCK
 62
     0
 10
287.323917
 20
33.500683
 30
0.0
 11
287.323917
 21
33.450683
 31
0.0
 12
287.473917
 22
33.475683
 32
0.0
 13
287.473917
 23
33.475683
 33
0.0
  0
SOLID
  8
0
  6
BYBLOCK
 62
     0
 10
287.883917
 20
33.500683
 30
0.0
 11
287.883917
 21
33.450683
 31
0.0
 12
287.733917
 22
33.475683
 32
0.0
 13
287.733917
 23
33.475683
 33
0.0
  0
LINE
  8
0
  6
BYBLOCK
 62
     0
 10
287.473917
 20
33.475683
 30
0.0
 11
287.733917
 21
33.475683
 31
0.0
  0
TEXT
  8
0
  6
BYBLOCK
 62
     0
 10
287.478917
 20
33.513183
 30
0.0
 40
0.075
  1
0.26
  7
ROMANC
 72
     1
 11
287.603917
 21
33.550683
 31
0.0
 73
     2
  0
POINT
  8
DEFPOINTS
  6
BYBLOCK
 62
     0
 10
287.473917
 20
34.344034
 30
0.0
  0
POINT
  8
DEFPOINTS
  6
BYBLOCK
 62
     0
 10
287.733917
 20
34.344034
 30
0.0
  0
POINT
  8
DEFPOINTS
  6
BYBLOCK
 62
     0
 10
287.733917
 20
33.475683
 30
0.0
  0
ENDBLK
  8
0
  0
BLOCK
  8
0
  2
*D16
 70
    65
 10
0.0
 20
0.0
 30
0.0
  3
*D
  0
LINE
  8
0
  6
BYBLOCK
 62
     0
 10
287.748917
 20
35.844034
 30
0.0
 11
289.076639
 21
35.844034
 31
0.0
  0
LINE
  8
0
  6
BYBLOCK
 62
     0
 10
287.098917
 20
33.944034
 30
0.0
 11
289.076639
 21
33.944034
 31
0.0
  0
LINE
  8
0
  6
BYBLOCK
 62
     0
 10
289.061639
 20
35.694034
 30
0.0
 11
289.061639
 21
34.094034
 31
0.0
  0
SOLID
  8
0
  6
BYBLOCK
 62
     0
 10
289.036639
 20
35.694034
 30
0.0
 11
289.086639
 21
35.694034
 31
0.0
 12
289.061639
 22
35.844034
 32
0.0
 13
289.061639
 23
35.844034
 33
0.0
  0
SOLID
  8
0
  6
BYBLOCK
 62
     0
 10
289.036639
 20
34.094034
 30
0.0
 11
289.086639
 21
34.094034
 31
0.0
 12
289.061639
 22
33.944034
 32
0.0
 13
289.061639
 23
33.944034
 33
0.0
  0
TEXT
  8
0
  6
BYBLOCK
 62
     0
 10
289.024139
 20
34.763677
 30
0.0
 40
0.075
  1
1.90
 50
90.0
  7
ROMANC
 72
     1
 11
288.986639
 21
34.894034
 31
0.0
 73
     2
  0
POINT
  8
DEFPOINTS
  6
BYBLOCK
 62
     0
 10
287.733917
 20
35.844034
 30
0.0
  0
POINT
  8
DEFPOINTS
  6
BYBLOCK
 62
     0
 10
287.083917
 20
33.944034
 30
0.0
  0
POINT
  8
DEFPOINTS
  6
BYBLOCK
 62
     0
 10
289.061639
 20
33.944034
 30
0.0
  0
ENDBLK
  8
0
  0
BLOCK
  8
0
  2
*D17
 70
    65
 10
0.0
 20
0.0
 30
0.0
  3
*D
  0
LINE
  8
0
  6
BYBLOCK
 62
     0
 10
287.748917
 20
35.844034
 30
0.0
 11
288.293612
 21
35.844034
 31
0.0
  0
LINE
  8
0
  6
BYBLOCK
 62
     0
 10
287.748917
 20
34.344034
 30
0.0
 11
288.293612
 21
34.344034
 31
0.0
  0
LINE
  8
0
  6
BYBLOCK
 62
     0
 10
288.278612
 20
35.694034
 30
0.0
 11
288.278612
 21
34.494034
 31
0.0
  0
SOLID
  8
0
  6
BYBLOCK
 62
     0
 10
288.253612
 20
35.694034
 30
0.0
 11
288.303612
 21
35.694034
 31
0.0
 12
288.278612
 22
35.844034
 32
0.0
 13
288.278612
 23
35.844034
 33
0.0
  0
SOLID
  8
0
  6
BYBLOCK
 62
     0
 10
288.253612
 20
34.494034
 30
0.0
 11
288.303612
 21
34.494034
 31
0.0
 12
288.278612
 22
34.344034
 32
0.0
 13
288.278612
 23
34.344034
 33
0.0
  0
TEXT
  8
0
  6
BYBLOCK
 62
     0
 10
288.241112
 20
34.963677
 30
0.0
 40
0.075
  1
1.50
 50
90.0
  7
ROMANC
 72
     1
 11
288.203612
 21
35.094034
 31
0.0
 73
     2
  0
POINT
  8
DEFPOINTS
  6
BYBLOCK
 62
     0
 10
287.733917
 20
35.844034
 30
0.0
  0
POINT
  8
DEFPOINTS
  6
BYBLOCK
 62
     0
 10
287.733917
 20
34.344034
 30
0.0
  0
POINT
  8
DEFPOINTS
  6
BYBLOCK
 62
     0
 10
288.278612
 20
34.344034
 30
0.0
  0
ENDBLK
  8
0
  0
BLOCK
  8
0
  2
*D18
 70
    65
 10
0.0
 20
0.0
 30
0.0
  3
*D
  0
LINE
  8
0
  6
BYBLOCK
 62
     0
 10
287.748917
 20
34.344034
 30
0.0
 11
288.293612
 21
34.344034
 31
0.0
  0
LINE
  8
0
  6
BYBLOCK
 62
     0
 10
287.098917
 20
33.944034
 30
0.0
 11
288.293612
 21
33.944034
 31
0.0
  0
LINE
  8
0
  6
BYBLOCK
 62
     0
 10
288.278612
 20
34.494034
 30
0.0
 11
288.278612
 21
34.644034
 31
0.0
  0
LINE
  8
0
  6
BYBLOCK
 62
     0
 10
288.278612
 20
33.794034
 30
0.0
 11
288.278612
 21
33.644034
 31
0.0
  0
SOLID
  8
0
  6
BYBLOCK
 62
     0
 10
288.253612
 20
34.494034
 30
0.0
 11
288.303612
 21
34.494034
 31
0.0
 12
288.278612
 22
34.344034
 32
0.0
 13
288.278612
 23
34.344034
 33
0.0
  0
SOLID
  8
0
  6
BYBLOCK
 62
     0
 10
288.253612
 20
33.794034
 30
0.0
 11
288.303612
 21
33.794034
 31
0.0
 12
288.278612
 22
33.944034
 32
0.0
 13
288.278612
 23
33.944034
 33
0.0
  0
LINE
  8
0
  6
BYBLOCK
 62
     0
 10
288.278612
 20
34.344034
 30
0.0
 11
288.278612
 21
33.944034
 31
0.0
  0
TEXT
  8
0
  6
BYBLOCK
 62
     0
 10
288.241112
 20
34.019034
 30
0.0
 40
0.075
  1
0.40
 50
90.0
  7
ROMANC
 72
     1
 11
288.203612
 21
34.144034
 31
0.0
 73
     2
  0
POINT
  8
DEFPOINTS
  6
BYBLOCK
 62
     0
 10
287.733917
 20
34.344034
 30
0.0
  0
POINT
  8
DEFPOINTS
  6
BYBLOCK
 62
     0
 10
287.083917
 20
33.944034
 30
0.0
  0
POINT
  8
DEFPOINTS
  6
BYBLOCK
 62
     0
 10
288.278612
 20
33.944034
 30
0.0
  0
ENDBLK
  8
0
  0
ENDSEC
  0
SECTION
  2
ENTITIES
  0
POLYLINE
  8
0
 66
     1
 10
0.0
 20
0.0
 30
0.0
  0
VERTEX
  8
0
 10
108.040631
 20
-16.548467
 30
0.0
 42
0.063415
  0
SEQEND
  8
0
  0
POLYLINE
  8
0
 66
     1
 10
0.0
 20
0.0
 30
0.0
  0
VERTEX
  8
0
 10
86.286488
 20
-15.036857
 30
0.0
 42
0.22708
  0
SEQEND
  8
0
  0
POLYLINE
  8
0
 66
     1
 10
0.0
 20
0.0
 30
0.0
  0
VERTEX
  8
0
 10
72.351426
 20
-14.976331
 30
0.0
 42
0.089446
  0
SEQEND
  8
0
  0
POLYLINE
  8
0
 66
     1
 10
0.0
 20
0.0
 30
0.0
  0
VERTEX
  8
0
 10
97.210524
 20
16.938509
 30
0.0
 42
0.05817
  0
SEQEND
  8
0
  0
POLYLINE
  8
0
 66
     1
 10
0.0
 20
0.0
 30
0.0
  0
VERTEX
  8
0
 10
121.196188
 20
17.602271
 30
0.0
 42
0.156162
  0
SEQEND
  8
0
  0
POLYLINE
  8
0
 66
     1
 10
0.0
 20
0.0
 30
0.0
  0
VERTEX
  8
0
 10
119.340696
 20
34.532686
 30
0.0
 42
0.283046
  0
SEQEND
  8
0
  0
POLYLINE
  8
0
 66
     1
 10
0.0
 20
0.0
 30
0.0
  0
VERTEX
  8
0
 10
157.359637
 20
32.54887
 30
0.0
 42
0.269827
  0
SEQEND
  8
0
  0
POLYLINE
  8
0
 66
     1
 10
0.0
 20
0.0
 30
0.0
  0
VERTEX
  8
0
 10
156.169702
 20
18.299763
 30
0.0
 42
0.066056
  0
SEQEND
  8
0
  0
POLYLINE
  8
0
 66
     1
 10
0.0
 20
0.0
 30
0.0
  0
VERTEX
  8
0
 10
168.512554
 20
1.430566
 30
0.0
 42
0.148501
  0
SEQEND
  8
0
  0
POLYLINE
  8
0
 66
     1
 10
0.0
 20
0.0
 30
0.0
  0
VERTEX
  8
0
 10
168.689549
 20
33.579487
 30
0.0
 42
0.08626
  0
SEQEND
  8
0
  0
POLYLINE
  8
0
 66
     1
 10
0.0
 20
0.0
 30
0.0
  0
VERTEX
  8
0
 10
180.209617
 20
34.197499
 30
0.0
 42
0.059446
  0
SEQEND
  8
0
  0
POLYLINE
  8
0
 66
     1
 10
0.0
 20
0.0
 30
0.0
  0
VERTEX
  8
0
 10
168.213495
 20
14.734069
 30
0.0
 42
0.06661
  0
SEQEND
  8
0
  0
POLYLINE
  8
0
 66
     1
 10
0.0
 20
0.0
 30
0.0
  0
VERTEX
  8
0
 10
180.09759
 20
16.643931
 30
0.0
 42
0.165716
  0
SEQEND
  8
0
  0
POLYLINE
  8
0
 66
     1
 10
0.0
 20
0.0
 30
0.0
  0
VERTEX
  8
0
 10
180.349774
 20
-12.199421
 30
0.0
 42
0.098491
  0
SEQEND
  8
0
  0
POLYLINE
  8
0
 66
     1
 10
0.0
 20
0.0
 30
0.0
  0
VERTEX
  8
0
 10
194.593929
 20
-14.402211
 30
0.0
 42
0.098491
  0
SEQEND
  8
0
  0
POLYLINE
  8
0
 66
     1
 10
0.0
 20
0.0
 30
0.0
  0
VERTEX
  8
0
 10
192.091391
 20
16.821986
 30
0.0
 42
0.129253
  0
SEQEND
  8
0
  0
LINE
  8
0
 10
291.895795
 20
29.897444
 30
0.0
 11
291.895795
 21
44.747444
 31
0.0
  0
TEXT
  8
0
 10
283.887846
 20
40.56142
 30
0.0
 40
0.3
  1
P = 93.2 dm
  7
ROMANC
  0
LINE
  8
0
 10
281.395795
 20
44.747444
 30
0.0
 11
281.395795
 21
29.897444
 31
0.0
  0
LINE
  8
0
 10
281.395795
 20
29.897444
 30
0.0
 11
291.895795
 21
29.897444
 31
0.0
  0
LINE
  8
0
 10
291.895795
 20
44.747444
 30
0.0
 11
281.395795
 21
44.747444
 31
0.0
  0
TEXT
  8
0
 10
287.122271
 20
41.564915
 30
0.0
 40
0.1
  1
2
  7
ROMANC
  0
TEXT
  8
0
 10
283.925768
 20
41.857589
 30
0.0
 40
0.3
  1
ESCALA  1:50
  7
ROMANC
  0
TEXT
  8
0
 10
283.925768
 20
42.343303
 30
0.0
 40
0.3
  1
TIPUS   NT454
  7
ROMANC
  0
TEXT
  8
0
 10
283.938862
 20
41.258999
 30
0.0
 40
0.3
  1
S=  454 dm
  7
ROMANC
  0
POLYLINE
  8
0
 66
     1
 10
0.0
 20
0.0
 30
0.0
  0
VERTEX
  8
0
 10
285.562002
 20
36.153868
 30
0.0
 42
0.113017
  0
SEQEND
  8
0
  0
POLYLINE
  8
0
 66
     1
 10
0.0
 20
0.0
 30
0.0
  0
VERTEX
  8
0
 10
285.562002
 20
36.153868
 30
0.0
 42
0.098491
  0
SEQEND
  8
0
  0
POLYLINE
  8
0
 66
     1
 10
0.0
 20
0.0
 30
0.0
  0
VERTEX
  8
0
 10
284.801631
 20
36.566408
 30
0.0
 42
0.13263
  0
SEQEND
  8
0
  0
LINE
  8
0
 10
287.723917
 20
35.834034
 30
0.0
 11
285.043917
 21
35.834034
 31
0.0
  0
LINE
  8
0
 10
285.043917
 20
35.834034
 30
0.0
 11
285.043917
 21
34.354034
 31
0.0
  0
LINE
  8
0
 10
285.043917
 20
34.354034
 30
0.0
 11
285.304042
 21
34.354034
 31
0.0
  0
ARC
  8
0
 10
285.703955
 20
34.344034
 30
0.0
 40
0.400038
 50
178.567591
 51
201.991724
  0
ARC
  8
0
 10
285.6942
 20
34.340095
 30
0.0
 40
0.389517
 50
201.991724
 51
224.274776
  0
ARC
  8
0
 10
285.687948
 20
34.333998
 30
0.0
 40
0.380785
 50
224.274776
 51
246.982544
  0
ARC
  8
0
 10
285.683917
 20
34.324511
 30
0.0
 40
0.370477
 50
246.982544
 51
270.0
  0
ARC
  8
0
 10
285.683917
 20
34.324511
 30
0.0
 40
0.370477
 50
270.0
 51
293.017456
  0
ARC
  8
0
 10
285.679887
 20
34.333998
 30
0.0
 40
0.380785
 50
293.017456
 51
315.725224
  0
ARC
  8
0
 10
285.673634
 20
34.340095
 30
0.0
 40
0.389517
 50
315.725224
 51
338.008276
  0
ARC
  8
0
 10
285.663879
 20
34.344034
 30
0.0
 40
0.400038
 50
338.008276
 51
1.432409
  0
LINE
  8
0
 10
286.063792
 20
34.354034
 30
0.0
 11
286.704042
 21
34.354034
 31
0.0
  0
ARC
  8
0
 10
287.103955
 20
34.344034
 30
0.0
 40
0.400038
 50
178.567591
 51
201.991724
  0
ARC
  8
0
 10
287.0942
 20
34.340095
 30
0.0
 40
0.389517
 50
201.991724
 51
224.274776
  0
ARC
  8
0
 10
287.087948
 20
34.333998
 30
0.0
 40
0.380785
 50
224.274776
 51
246.982544
  0
ARC
  8
0
 10
287.083917
 20
34.324511
 30
0.0
 40
0.370477
 50
246.982544
 51
270.0
  0
ARC
  8
0
 10
287.083917
 20
34.324511
 30
0.0
 40
0.370477
 50
270.0
 51
293.017456
  0
ARC
  8
0
 10
287.079887
 20
34.333998
 30
0.0
 40
0.380785
 50
293.017456
 51
315.725224
  0
ARC
  8
0
 10
287.073634
 20
34.340095
 30
0.0
 40
0.389517
 50
315.725224
 51
338.008276
  0
ARC
  8
0
 10
287.063879
 20
34.344034
 30
0.0
 40
0.400038
 50
338.008276
 51
1.432409
  0
LINE
  8
0
 10
287.463792
 20
34.354034
 30
0.0
 11
287.723917
 21
34.354034
 31
0.0
  0
LINE
  8
0
 10
287.723917
 20
34.354034
 30
0.0
 11
287.723917
 21
35.834034
 31
0.0
  0
LINE
  8
0
 10
287.743917
 20
35.854034
 30
0.0
 11
285.023917
 21
35.854034
 31
0.0
  0
LINE
  8
0
 10
285.023917
 20
35.854034
 30
0.0
 11
285.023917
 21
34.334034
 31
0.0
  0
LINE
  8
0
 10
285.023917
 20
34.334034
 30
0.0
 11
285.284036
 21
34.334034
 31
0.0
  0
ARC
  8
0
 10
285.703955
 20
34.344034
 30
0.0
 40
0.420038
 50
181.364192
 51
201.991724
  0
ARC
  8
0
 10
285.6942
 20
34.340095
 30
0.0
 40
0.409517
 50
201.991724
 51
224.274776
  0
ARC
  8
0
 10
285.687948
 20
34.333998
 30
0.0
 40
0.400785
 50
224.274776
 51
246.982544
  0
ARC
  8
0
 10
285.683917
 20
34.324511
 30
0.0
 40
0.390477
 50
246.982544
 51
270.0
  0
ARC
  8
0
 10
285.683917
 20
34.324511
 30
0.0
 40
0.390477
 50
270.0
 51
293.017456
  0
ARC
  8
0
 10
285.679887
 20
34.333998
 30
0.0
 40
0.400785
 50
293.017456
 51
315.725224
  0
ARC
  8
0
 10
285.673634
 20
34.340095
 30
0.0
 40
0.409517
 50
315.725224
 51
338.008276
  0
ARC
  8
0
 10
285.663879
 20
34.344034
 30
0.0
 40
0.420038
 50
338.008276
 51
358.635808
  0
LINE
  8
0
 10
286.083798
 20
34.334034
 30
0.0
 11
286.684036
 21
34.334034
 31
0.0
  0
ARC
  8
0
 10
287.103955
 20
34.344034
 30
0.0
 40
0.420038
 50
181.364192
 51
201.991724
  0
ARC
  8
0
 10
287.0942
 20
34.340095
 30
0.0
 40
0.409517
 50
201.991724
 51
224.274776
  0
ARC
  8
0
 10
287.087948
 20
34.333998
 30
0.0
 40
0.400785
 50
224.274776
 51
246.982544
  0
ARC
  8
0
 10
287.083917
 20
34.324511
 30
0.0
 40
0.390477
 50
246.982544
 51
270.0
  0
ARC
  8
0
 10
287.083917
 20
34.324511
 30
0.0
 40
0.390477
 50
270.0
 51
293.017456
  0
ARC
  8
0
 10
287.079887
 20
34.333998
 30
0.0
 40
0.400785
 50
293.017456
 51
315.725224
  0
ARC
  8
0
 10
287.073634
 20
34.340095
 30
0.0
 40
0.409517
 50
315.725224
 51
338.008276
  0
ARC
  8
0
 10
287.063879
 20
34.344034
 30
0.0
 40
0.420038
 50
338.008276
 51
358.635808
  0
LINE
  8
0
 10
287.483798
 20
34.334034
 30
0.0
 11
287.743917
 21
34.334034
 31
0.0
  0
LINE
  8
0
 10
287.743917
 20
34.334034
 30
0.0
 11
287.743917
 21
35.854034
 31
0.0
  0
LINE
  8
0
 10
287.733917
 20
35.844034
 30
0.0
 11
285.033917
 21
35.844034
 31
0.0
  0
LINE
  8
0
 10
285.033917
 20
35.844034
 30
0.0
 11
285.033917
 21
34.344034
 31
0.0
  0
LINE
  8
0
 10
285.033917
 20
34.344034
 30
0.0
 11
285.293917
 21
34.344034
 31
0.0
  0
ARC
  8
0
 10
285.703955
 20
34.344034
 30
0.0
 40
0.410038
 50
180.0
 51
201.991724
  0
ARC
  8
0
 10
285.6942
 20
34.340095
 30
0.0
 40
0.399517
 50
201.991724
 51
224.274776
  0
ARC
  8
0
 10
285.687948
 20
34.333998
 30
0.0
 40
0.390785
 50
224.274776
 51
246.982544
  0
ARC
  8
0
 10
285.683917
 20
34.324511
 30
0.0
 40
0.380477
 50
246.982544
 51
270.0
  0
ARC
  8
0
 10
285.683917
 20
34.324511
 30
0.0
 40
0.380477
 50
270.0
 51
293.017456
  0
ARC
  8
0
 10
285.679887
 20
34.333998
 30
0.0
 40
0.390785
 50
293.017456
 51
315.725224
  0
ARC
  8
0
 10
285.673634
 20
34.340095
 30
0.0
 40
0.399517
 50
315.725224
 51
338.008276
  0
ARC
  8
0
 10
285.663879
 20
34.344034
 30
0.0
 40
0.410038
 50
338.008276
 51
0.0
  0
LINE
  8
0
 10
286.073917
 20
34.344034
 30
0.0
 11
286.693917
 21
34.344034
 31
0.0
  0
ARC
  8
0
 10
287.103955
 20
34.344034
 30
0.0
 40
0.410038
 50
180.0
 51
201.991724
  0
ARC
  8
0
 10
287.0942
 20
34.340095
 30
0.0
 40
0.399517
 50
201.991724
 51
224.274776
  0
ARC
  8
0
 10
287.087948
 20
34.333998
 30
0.0
 40
0.390785
 50
224.274776
 51
246.982544
  0
ARC
  8
0
 10
287.083917
 20
34.324511
 30
0.0
 40
0.380477
 50
246.982544
 51
270.0
  0
ARC
  8
0
 10
287.083917
 20
34.324511
 30
0.0
 40
0.380477
 50
270.0
 51
293.017456
  0
ARC
  8
0
 10
287.079887
 20
34.333998
 30
0.0
 40
0.390785
 50
293.017456
 51
315.725224
  0
ARC
  8
0
 10
287.073634
 20
34.340095
 30
0.0
 40
0.399517
 50
315.725224
 51
338.008276
  0
ARC
  8
0
 10
287.063879
 20
34.344034
 30
0.0
 40
0.410038
 50
338.008276
 51
0.0
  0
LINE
  8
0
 10
287.473917
 20
34.344034
 30
0.0
 11
287.733917
 21
34.344034
 31
0.0
  0
LINE
  8
0
 10
287.733917
 20
34.344034
 30
0.0
 11
287.733917
 21
35.844034
 31
0.0
  0
LINE
  8
0
  6
BYBLOCK
 62
     0
 10
285.293917
 20
34.329034
 30
0.0
 11
285.293917
 21
33.460683
 31
0.0
  0
LINE
  8
0
  6
BYBLOCK
 62
     0
 10
286.073917
 20
34.329034
 30
0.0
 11
286.073917
 21
33.460683
 31
0.0
  0
LINE
  8
0
  6
BYBLOCK
 62
     0
 10
285.143917
 20
33.475683
 30
0.0
 11
284.993917
 21
33.475683
 31
0.0
  0
LINE
  8
0
  6
BYBLOCK
 62
     0
 10
286.223917
 20
33.475683
 30
0.0
 11
286.373917
 21
33.475683
 31
0.0
  0
SOLID
  8
0
  6
BYBLOCK
 62
     0
 10
285.143917
 20
33.500683
 30
0.0
 11
285.143917
 21
33.450683
 31
0.0
 12
285.293917
 22
33.475683
 32
0.0
 13
285.293917
 23
33.475683
 33
0.0
  0
SOLID
  8
0
  6
BYBLOCK
 62
     0
 10
286.223917
 20
33.500683
 30
0.0
 11
286.223917
 21
33.450683
 31
0.0
 12
286.073917
 22
33.475683
 32
0.0
 13
286.073917
 23
33.475683
 33
0.0
  0
LINE
  8
0
  6
BYBLOCK
 62
     0
 10
285.293917
 20
33.475683
 30
0.0
 11
286.073917
 21
33.475683
 31
0.0
  0
TEXT
  8
0
  6
BYBLOCK
 62
     0
 10
285.558917
 20
33.513183
 30
0.0
 40
0.075
  1
0.78
  7
ROMANC
 72
     1
 11
285.683917
 21
33.550683
 31
0.0
 73
     2
  0
POINT
  8
DEFPOINTS
  6
BYBLOCK
 62
     0
 10
285.293917
 20
34.344034
 30
0.0
  0
POINT
  8
DEFPOINTS
  6
BYBLOCK
 62
     0
 10
286.073917
 20
34.344034
 30
0.0
  0
POINT
  8
DEFPOINTS
  6
BYBLOCK
 62
     0
 10
286.073917
 20
33.475683
 30
0.0
  0
LINE
  8
0
  6
BYBLOCK
 62
     0
 10
285.033917
 20
34.329034
 30
0.0
 11
285.033917
 21
33.460683
 31
0.0
  0
LINE
  8
0
  6
BYBLOCK
 62
     0
 10
285.293917
 20
34.329034
 30
0.0
 11
285.293917
 21
33.460683
 31
0.0
  0
LINE
  8
0
  6
BYBLOCK
 62
     0
 10
284.883917
 20
33.475683
 30
0.0
 11
284.733917
 21
33.475683
 31
0.0
  0
LINE
  8
0
  6
BYBLOCK
 62
     0
 10
285.443917
 20
33.475683
 30
0.0
 11
285.593917
 21
33.475683
 31
0.0
  0
SOLID
  8
0
  6
BYBLOCK
 62
     0
 10
284.883917
 20
33.500683
 30
0.0
 11
284.883917
 21
33.450683
 31
0.0
 12
285.033917
 22
33.475683
 32
0.0
 13
285.033917
 23
33.475683
 33
0.0
  0
SOLID
  8
0
  6
BYBLOCK
 62
     0
 10
285.443917
 20
33.500683
 30
0.0
 11
285.443917
 21
33.450683
 31
0.0
 12
285.293917
 22
33.475683
 32
0.0
 13
285.293917
 23
33.475683
 33
0.0
  0
LINE
  8
0
  6
BYBLOCK
 62
     0
 10
285.033917
 20
33.475683
 30
0.0
 11
285.293917
 21
33.475683
 31
0.0
  0
TEXT
  8
0
  6
BYBLOCK
 62
     0
 10
285.038917
 20
33.513183
 30
0.0
 40
0.075
  1
0.26
  7
ROMANC
 72
     1
 11
285.163917
 21
33.550683
 31
0.0
 73
     2
  0
POINT
  8
DEFPOINTS
  6
BYBLOCK
 62
     0
 10
285.033917
 20
34.344034
 30
0.0
  0
POINT
  8
DEFPOINTS
  6
BYBLOCK
 62
     0
 10
285.293917
 20
34.344034
 30
0.0
  0
POINT
  8
DEFPOINTS
  6
BYBLOCK
 62
     0
 10
285.293917
 20
33.475683
 30
0.0
  0
LINE
  8
0
  6
BYBLOCK
 62
     0
 10
285.033917
 20
34.329034
 30
0.0
 11
285.033917
 21
32.728207
 31
0.0
  0
LINE
  8
0
  6
BYBLOCK
 62
     0
 10
287.733917
 20
34.329034
 30
0.0
 11
287.733917
 21
32.728207
 31
0.0
  0
LINE
  8
0
  6
BYBLOCK
 62
     0
 10
285.183917
 20
32.743207
 30
0.0
 11
287.583917
 21
32.743207
 31
0.0
  0
SOLID
  8
0
  6
BYBLOCK
 62
     0
 10
285.183917
 20
32.768207
 30
0.0
 11
285.183917
 21
32.718207
 31
0.0
 12
285.033917
 22
32.743207
 32
0.0
 13
285.033917
 23
32.743207
 33
0.0
  0
SOLID
  8
0
  6
BYBLOCK
 62
     0
 10
287.583917
 20
32.768207
 30
0.0
 11
287.583917
 21
32.718207
 31
0.0
 12
287.733917
 22
32.743207
 32
0.0
 13
287.733917
 23
32.743207
 33
0.0
  0
TEXT
  8
0
  6
BYBLOCK
 62
     0
 10
286.258917
 20
32.780707
 30
0.0
 40
0.075
  1
2.70
  7
ROMANC
 72
     1
 11
286.383917
 21
32.818207
 31
0.0
 73
     2
  0
POINT
  8
DEFPOINTS
  6
BYBLOCK
 62
     0
 10
285.033917
 20
34.344034
 30
0.0
  0
POINT
  8
DEFPOINTS
  6
BYBLOCK
 62
     0
 10
287.733917
 20
34.344034
 30
0.0
  0
POINT
  8
DEFPOINTS
  6
BYBLOCK
 62
     0
 10
287.733917
 20
32.743207
 30
0.0
  0
LINE
  8
0
  6
BYBLOCK
 62
     0
 10
287.748917
 20
35.844034
 30
0.0
 11
289.076639
 21
35.844034
 31
0.0
  0
LINE
  8
0
  6
BYBLOCK
 62
     0
 10
287.098917
 20
33.944034
 30
0.0
 11
289.076639
 21
33.944034
 31
0.0
  0
LINE
  8
0
  6
BYBLOCK
 62
     0
 10
289.061639
 20
35.694034
 30
0.0
 11
289.061639
 21
34.094034
 31
0.0
  0
SOLID
  8
0
  6
BYBLOCK
 62
     0
 10
289.036639
 20
35.694034
 30
0.0
 11
289.086639
 21
35.694034
 31
0.0
 12
289.061639
 22
35.844034
 32
0.0
 13
289.061639
 23
35.844034
 33
0.0
  0
SOLID
  8
0
  6
BYBLOCK
 62
     0
 10
289.036639
 20
34.094034
 30
0.0
 11
289.086639
 21
34.094034
 31
0.0
 12
289.061639
 22
33.944034
 32
0.0
 13
289.061639
 23
33.944034
 33
0.0
  0
TEXT
  8
0
  6
BYBLOCK
 62
     0
 10
289.024139
 20
34.763677
 30
0.0
 40
0.075
  1
1.90
 50
90.0
  7
ROMANC
 72
     1
 11
288.986639
 21
34.894034
 31
0.0
 73
     2
  0
POINT
  8
DEFPOINTS
  6
BYBLOCK
 62
     0
 10
287.733917
 20
35.844034
 30
0.0
  0
POINT
  8
DEFPOINTS
  6
BYBLOCK
 62
     0
 10
287.083917
 20
33.944034
 30
0.0
  0
POINT
  8
DEFPOINTS
  6
BYBLOCK
 62
     0
 10
289.061639
 20
33.944034
 30
0.0
  0
LINE
  8
0
  6
BYBLOCK
 62
     0
 10
287.748917
 20
34.344034
 30
0.0
 11
288.293612
 21
34.344034
 31
0.0
  0
LINE
  8
0
  6
BYBLOCK
 62
     0
 10
287.098917
 20
33.944034
 30
0.0
 11
288.293612
 21
33.944034
 31
0.0
  0
LINE
  8
0
  6
BYBLOCK
 62
     0
 10
288.278612
 20
34.494034
 30
0.0
 11
288.278612
 21
34.644034
 31
0.0
  0
LINE
  8
0
  6
BYBLOCK
 62
     0
 10
288.278612
 20
33.794034
 30
0.0
 11
288.278612
 21
33.644034
 31
0.0
  0
SOLID
  8
0
  6
BYBLOCK
 62
     0
 10
288.253612
 20
34.494034
 30
0.0
 11
288.303612
 21
34.494034
 31
0.0
 12
288.278612
 22
34.344034
 32
0.0
 13
288.278612
 23
34.344034
 33
0.0
  0
SOLID
  8
0
  6
BYBLOCK
 62
     0
 10
288.253612
 20
33.794034
 30
0.0
 11
288.303612
 21
33.794034
 31
0.0
 12
288.278612
 22
33.944034
 32
0.0
 13
288.278612
 23
33.944034
 33
0.0
  0
LINE
  8
0
  6
BYBLOCK
 62
     0
 10
288.278612
 20
34.344034
 30
0.0
 11
288.278612
 21
33.944034
 31
0.0
  0
TEXT
  8
0
  6
BYBLOCK
 62
     0
 10
288.241112
 20
34.019034
 30
0.0
 40
0.075
  1
0.40
 50
90.0
  7
ROMANC
 72
     1
 11
288.203612
 21
34.144034
 31
0.0
 73
     2
  0
POINT
  8
DEFPOINTS
  6
BYBLOCK
 62
     0
 10
287.733917
 20
34.344034
 30
0.0
  0
POINT
  8
DEFPOINTS
  6
BYBLOCK
 62
     0
 10
287.083917
 20
33.944034
 30
0.0
  0
POINT
  8
DEFPOINTS
  6
BYBLOCK
 62
     0
 10
288.278612
 20
33.944034
 30
0.0
  0
LINE
  8
0
  6
BYBLOCK
 62
     0
 10
287.748917
 20
35.844034
 30
0.0
 11
288.293612
 21
35.844034
 31
0.0
  0
LINE
  8
0
  6
BYBLOCK
 62
     0
 10
287.748917
 20
34.344034
 30
0.0
 11
288.293612
 21
34.344034
 31
0.0
  0
LINE
  8
0
  6
BYBLOCK
 62
     0
 10
288.278612
 20
35.694034
 30
0.0
 11
288.278612
 21
34.494034
 31
0.0
  0
SOLID
  8
0
  6
BYBLOCK
 62
     0
 10
288.253612
 20
35.694034
 30
0.0
 11
288.303612
 21
35.694034
 31
0.0
 12
288.278612
 22
35.844034
 32
0.0
 13
288.278612
 23
35.844034
 33
0.0
  0
SOLID
  8
0
  6
BYBLOCK
 62
     0
 10
288.253612
 20
34.494034
 30
0.0
 11
288.303612
 21
34.494034
 31
0.0
 12
288.278612
 22
34.344034
 32
0.0
 13
288.278612
 23
34.344034
 33
0.0
  0
TEXT
  8
0
  6
BYBLOCK
 62
     0
 10
288.241112
 20
34.963677
 30
0.0
 40
0.075
  1
1.50
 50
90.0
  7
ROMANC
 72
     1
 11
288.203612
 21
35.094034
 31
0.0
 73
     2
  0
POINT
  8
DEFPOINTS
  6
BYBLOCK
 62
     0
 10
287.733917
 20
35.844034
 30
0.0
  0
POINT
  8
DEFPOINTS
  6
BYBLOCK
 62
     0
 10
287.733917
 20
34.344034
 30
0.0
  0
POINT
  8
DEFPOINTS
  6
BYBLOCK
 62
     0
 10
288.278612
 20
34.344034
 30
0.0
  0
LINE
  8
0
  6
BYBLOCK
 62
     0
 10
287.473917
 20
34.329034
 30
0.0
 11
287.473917
 21
33.460683
 31
0.0
  0
LINE
  8
0
  6
BYBLOCK
 62
     0
 10
287.733917
 20
34.329034
 30
0.0
 11
287.733917
 21
33.460683
 31
0.0
  0
LINE
  8
0
  6
BYBLOCK
 62
     0
 10
287.323917
 20
33.475683
 30
0.0
 11
287.173917
 21
33.475683
 31
0.0
  0
LINE
  8
0
  6
BYBLOCK
 62
     0
 10
287.883917
 20
33.475683
 30
0.0
 11
288.033917
 21
33.475683
 31
0.0
  0
SOLID
  8
0
  6
BYBLOCK
 62
     0
 10
287.323917
 20
33.500683
 30
0.0
 11
287.323917
 21
33.450683
 31
0.0
 12
287.473917
 22
33.475683
 32
0.0
 13
287.473917
 23
33.475683
 33
0.0
  0
SOLID
  8
0
  6
BYBLOCK
 62
     0
 10
287.883917
 20
33.500683
 30
0.0
 11
287.883917
 21
33.450683
 31
0.0
 12
287.733917
 22
33.475683
 32
0.0
 13
287.733917
 23
33.475683
 33
0.0
  0
LINE
  8
0
  6
BYBLOCK
 62
     0
 10
287.473917
 20
33.475683
 30
0.0
 11
287.733917
 21
33.475683
 31
0.0
  0
TEXT
  8
0
  6
BYBLOCK
 62
     0
 10
287.478917
 20
33.513183
 30
0.0
 40
0.075
  1
0.26
  7
ROMANC
 72
     1
 11
287.603917
 21
33.550683
 31
0.0
 73
     2
  0
POINT
  8
DEFPOINTS
  6
BYBLOCK
 62
     0
 10
287.473917
 20
34.344034
 30
0.0
  0
POINT
  8
DEFPOINTS
  6
BYBLOCK
 62
     0
 10
287.733917
 20
34.344034
 30
0.0
  0
POINT
  8
DEFPOINTS
  6
BYBLOCK
 62
     0
 10
287.733917
 20
33.475683
 30
0.0
  0
LINE
  8
0
  6
BYBLOCK
 62
     0
 10
286.693917
 20
34.329034
 30
0.0
 11
286.693917
 21
33.460683
 31
0.0
  0
LINE
  8
0
  6
BYBLOCK
 62
     0
 10
287.473917
 20
34.329034
 30
0.0
 11
287.473917
 21
33.460683
 31
0.0
  0
LINE
  8
0
  6
BYBLOCK
 62
     0
 10
286.543917
 20
33.475683
 30
0.0
 11
286.393917
 21
33.475683
 31
0.0
  0
LINE
  8
0
  6
BYBLOCK
 62
     0
 10
287.623917
 20
33.475683
 30
0.0
 11
287.773917
 21
33.475683
 31
0.0
  0
SOLID
  8
0
  6
BYBLOCK
 62
     0
 10
286.543917
 20
33.500683
 30
0.0
 11
286.543917
 21
33.450683
 31
0.0
 12
286.693917
 22
33.475683
 32
0.0
 13
286.693917
 23
33.475683
 33
0.0
  0
SOLID
  8
0
  6
BYBLOCK
 62
     0
 10
287.623917
 20
33.500683
 30
0.0
 11
287.623917
 21
33.450683
 31
0.0
 12
287.473917
 22
33.475683
 32
0.0
 13
287.473917
 23
33.475683
 33
0.0
  0
LINE
  8
0
  6
BYBLOCK
 62
     0
 10
286.693917
 20
33.475683
 30
0.0
 11
287.473917
 21
33.475683
 31
0.0
  0
TEXT
  8
0
  6
BYBLOCK
 62
     0
 10
286.958917
 20
33.513183
 30
0.0
 40
0.075
  1
0.78
  7
ROMANC
 72
     1
 11
287.083917
 21
33.550683
 31
0.0
 73
     2
  0
POINT
  8
DEFPOINTS
  6
BYBLOCK
 62
     0
 10
286.693917
 20
34.344034
 30
0.0
  0
POINT
  8
DEFPOINTS
  6
BYBLOCK
 62
     0
 10
287.473917
 20
34.344034
 30
0.0
  0
POINT
  8
DEFPOINTS
  6
BYBLOCK
 62
     0
 10
287.473917
 20
33.475683
 30
0.0
  0
LINE
  8
0
  6
BYBLOCK
 62
     0
 10
286.073917
 20
34.329034
 30
0.0
 11
286.073917
 21
33.460683
 31
0.0
  0
LINE
  8
0
  6
BYBLOCK
 62
     0
 10
286.693917
 20
34.329034
 30
0.0
 11
286.693917
 21
33.460683
 31
0.0
  0
LINE
  8
0
  6
BYBLOCK
 62
     0
 10
285.923917
 20
33.475683
 30
0.0
 11
285.773917
 21
33.475683
 31
0.0
  0
LINE
  8
0
  6
BYBLOCK
 62
     0
 10
286.843917
 20
33.475683
 30
0.0
 11
286.993917
 21
33.475683
 31
0.0
  0
SOLID
  8
0
  6
BYBLOCK
 62
     0
 10
285.923917
 20
33.500683
 30
0.0
 11
285.923917
 21
33.450683
 31
0.0
 12
286.073917
 22
33.475683
 32
0.0
 13
286.073917
 23
33.475683
 33
0.0
  0
SOLID
  8
0
  6
BYBLOCK
 62
     0
 10
286.843917
 20
33.500683
 30
0.0
 11
286.843917
 21
33.450683
 31
0.0
 12
286.693917
 22
33.475683
 32
0.0
 13
286.693917
 23
33.475683
 33
0.0
  0
LINE
  8
0
  6
BYBLOCK
 62
     0
 10
286.073917
 20
33.475683
 30
0.0
 11
286.693917
 21
33.475683
 31
0.0
  0
TEXT
  8
0
  6
BYBLOCK
 62
     0
 10
286.258917
 20
33.513183
 30
0.0
 40
0.075
  1
0.62
  7
ROMANC
 72
     1
 11
286.383917
 21
33.550683
 31
0.0
 73
     2
  0
POINT
  8
DEFPOINTS
  6
BYBLOCK
 62
     0
 10
286.073917
 20
34.344034
 30
0.0
  0
POINT
  8
DEFPOINTS
  6
BYBLOCK
 62
     0
 10
286.693917
 20
34.344034
 30
0.0
  0
POINT
  8
DEFPOINTS
  6
BYBLOCK
 62
     0
 10
286.693917
 20
33.475683
 30
0.0
  0
ENDSEC
  0
EOF
