  0
SECTION
  2
HEADER
  9
$ACADVER
  1
AC1009
  9
$INSBASE
 10
235.741235
 20
27.622092
 30
0.0
  9
$EXTMIN
 10
235.741235
 20
27.622092
 30
0.0
  9
$EXTMAX
 10
485.400483
 20
66.76698
 30
0.0
  9
$LIMMIN
 10
0.0
 20
0.0
  9
$LIMMAX
 10
410.0
 20
287.0
  9
$ORTHOMODE
 70
     0
  9
$REGENMODE
 70
     1
  9
$FILLMODE
 70
     1
  9
$QTEXTMODE
 70
     0
  9
$MIRRTEXT
 70
     1
  9
$DRAGMODE
 70
     2
  9
$LTSCALE
 40
25.0
  9
$OSMODE
 70
    32
  9
$ATTMODE
 70
     1
  9
$TEXTSIZE
 40
0.1
  9
$TRACEWID
 40
1.0
  9
$TEXTSTYLE
  7
ROMANC
  9
$CLAYER
  8
0
  9
$CELTYPE
  6
BYLAYER
  9
$CECOLOR
 62
   256
  9
$DIMSCALE
 40
0.0
  9
$DIMASZ
 40
0.0
  9
$DIMEXO
 40
0.1
  9
$DIMDLI
 40
7.0
  9
$DIMRND
 40
0.0
  9
$DIMDLE
 40
0.0
  9
$DIMEXE
 40
1.8
  9
$DIMTP
 40
0.0
  9
$DIMTM
 40
0.0
  9
$DIMTXT
 40
0.03
  9
$DIMCEN
 40
1.5
  9
$DIMTSZ
 40
1.0
  9
$DIMTOL
 70
     0
  9
$DIMLIM
 70
     0
  9
$DIMTIH
 70
     0
  9
$DIMTOH
 70
     0
  9
$DIMSE1
 70
     0
  9
$DIMSE2
 70
     0
  9
$DIMTAD
 70
     0
  9
$DIMZIN
 70
     0
  9
$DIMBLK
  1

  9
$DIMASO
 70
     1
  9
$DIMSHO
 70
     0
  9
$DIMPOST
  1

  9
$DIMAPOST
  1

  9
$DIMALT
 70
     0
  9
$DIMALTD
 70
     2
  9
$DIMALTF
 40
25.4
  9
$DIMLFAC
 40
1.0
  9
$DIMTOFL
 70
     1
  9
$DIMTVP
 40
0.0
  9
$DIMTIX
 70
     1
  9
$DIMSOXD
 70
     0
  9
$DIMSAH
 70
     0
  9
$DIMBLK1
  1

  9
$DIMBLK2
  1

  9
$DIMSTYLE
  2
*UNNAMED
  9
$DIMCLRD
 70
     0
  9
$DIMCLRE
 70
     0
  9
$DIMCLRT
 70
     0
  9
$DIMTFAC
 40
116.666667
  9
$DIMGAP
 40
0.09
  9
$LUNITS
 70
     2
  9
$LUPREC
 70
     2
  9
$SKETCHINC
 40
1.0
  9
$FILLETRAD
 40
0.0
  9
$AUNITS
 70
     0
  9
$AUPREC
 70
     0
  9
$MENU
  1
acad
  9
$ELEVATION
 40
0.0
  9
$PELEVATION
 40
0.0
  9
$THICKNESS
 40
0.0
  9
$LIMCHECK
 70
     0
  9
$BLIPMODE
 70
     0
  9
$CHAMFERA
 40
0.0
  9
$CHAMFERB
 40
0.0
  9
$SKPOLY
 70
     0
  9
$TDCREATE
 40
2449967.715494097
  9
$TDUPDATE
 40
2450722.510843865
  9
$TDINDWG
 40
0.0022960648
  9
$TDUSRTIMER
 40
0.0022960648
  9
$USRTIMER
 70
     1
  9
$ANGBASE
 50
0.0
  9
$ANGDIR
 70
     0
  9
$PDMODE
 70
     0
  9
$PDSIZE
 40
0.0
  9
$PLINEWID
 40
0.0
  9
$COORDS
 70
     0
  9
$SPLFRAME
 70
     0
  9
$SPLINETYPE
 70
     6
  9
$SPLINESEGS
 70
     8
  9
$ATTDIA
 70
     0
  9
$ATTREQ
 70
     1
  9
$HANDLING
 70
     0
  9
$HANDSEED
  5
0
  9
$SURFTAB1
 70
     6
  9
$SURFTAB2
 70
     6
  9
$SURFTYPE
 70
     6
  9
$SURFU
 70
     6
  9
$SURFV
 70
     6
  9
$UCSNAME
  2

  9
$UCSORG
 10
0.0
 20
0.0
 30
0.0
  9
$UCSXDIR
 10
1.0
 20
0.0
 30
0.0
  9
$UCSYDIR
 10
0.0
 20
1.0
 30
0.0
  9
$PUCSNAME
  2

  9
$PUCSORG
 10
0.0
 20
0.0
 30
0.0
  9
$PUCSXDIR
 10
1.0
 20
0.0
 30
0.0
  9
$PUCSYDIR
 10
0.0
 20
1.0
 30
0.0
  9
$USERI1
 70
     0
  9
$USERI2
 70
     0
  9
$USERI3
 70
     0
  9
$USERI4
 70
     0
  9
$USERI5
 70
     0
  9
$USERR1
 40
0.0
  9
$USERR2
 40
0.0
  9
$USERR3
 40
0.0
  9
$USERR4
 40
0.0
  9
$USERR5
 40
0.0
  9
$WORLDVIEW
 70
     1
  9
$SHADEDGE
 70
     3
  9
$SHADEDIF
 70
    70
  9
$TILEMODE
 70
     1
  9
$MAXACTVP
 70
    16
  9
$PINSBASE
 10
0.0
 20
0.0
 30
0.0
  9
$PLIMCHECK
 70
     0
  9
$PEXTMIN
 10
1.000000E+20
 20
1.000000E+20
 30
1.000000E+20
  9
$PEXTMAX
 10
-1.000000E+20
 20
-1.000000E+20
 30
-1.000000E+20
  9
$PLIMMIN
 10
0.0
 20
0.0
  9
$PLIMMAX
 10
12.0
 20
9.0
  9
$UNITMODE
 70
     0
  9
$VISRETAIN
 70
     0
  9
$PLINEGEN
 70
     0
  9
$PSLTSCALE
 70
     0
  9
$TREEDEPTH
 70
  3020
  9
$DWGCODEPAGE
  3
iso8859-1
  0
ENDSEC
  0
SECTION
  2
TABLES
  0
TABLE
  2
VPORT
 70
     2
  0
VPORT
  2
*ACTIVE
 70
     0
 10
0.0
 20
0.0
 11
1.0
 21
1.0
 12
248.055573
 22
35.265889
 13
0.0
 23
0.0
 14
1.0
 24
1.0
 15
10.0
 25
10.0
 16
0.0
 26
0.0
 36
1.0
 17
0.0
 27
0.0
 37
0.0
 40
15.287595
 41
1.611024
 42
50.0
 43
0.0
 44
0.0
 50
0.0
 51
0.0
 71
     0
 72
   100
 73
     1
 74
     0
 75
     0
 76
     0
 77
     0
 78
     1
  0
ENDTAB
  0
TABLE
  2
LTYPE
 70
     1
  0
LTYPE
  2
CONTINUOUS
 70
    64
  3
Solid line
 72
    65
 73
     0
 40
0.0
  0
ENDTAB
  0
TABLE
  2
LAYER
 70
     1
  0
LAYER
  2
0
 70
    64
 62
     7
  6
CONTINUOUS
  0
ENDTAB
  0
TABLE
  2
STYLE
 70
     2
  0
STYLE
  2
STANDARD
 70
     0
 40
0.0
 41
1.0
 50
0.0
 71
     0
 42
0.1
  3
txt
  4

  0
STYLE
  2
ROMANC
 70
    64
 40
0.0
 41
1.0
 50
0.0
 71
     0
 42
0.1
  3
romanc
  4

  0
ENDTAB
  0
TABLE
  2
VIEW
 70
     0
  0
ENDTAB
  0
TABLE
  2
UCS
 70
     0
  0
ENDTAB
  0
TABLE
  2
APPID
 70
     1
  0
APPID
  2
ACAD
 70
    64
  0
ENDTAB
  0
TABLE
  2
DIMSTYLE
 70
     0
  0
ENDTAB
  0
ENDSEC
  0
SECTION
  2
BLOCKS
  0
ENDSEC
  0
SECTION
  2
ENTITIES
  0
LINE
  8
0
 10
235.741235
 20
42.472092
 30
0.0
 11
235.741235
 21
27.622092
 31
0.0
  0
TEXT
  8
0
 10
238.233285
 20
38.286068
 30
0.0
 40
0.3
  1
P = 78 dm
  7
ROMANC
  0
TEXT
  8
0
 10
242.629006
 20
32.133429
 30
0.0
 40
0.1
  1
0.10
  7
ROMANC
  0
TEXT
  8
0
 10
240.750909
 20
31.395645
 30
0.0
 40
0.1
  1
1.95
  7
ROMANC
  0
TEXT
  8
0
 10
242.643452
 20
32.809538
 30
0.0
 40
0.1
  1
1.30
  7
ROMANC
  0
TEXT
  8
0
 10
242.569955
 20
34.021447
 30
0.0
 40
0.1
  1
1.10
  7
ROMANC
  0
TEXT
  8
0
 10
241.467711
 20
39.289563
 30
0.0
 40
0.1
  1
2
  7
ROMANC
  0
TEXT
  8
0
 10
238.271207
 20
39.582237
 30
0.0
 40
0.3
  1
ESCALA  1:50
  7
ROMANC
  0
TEXT
  8
0
 10
238.271207
 20
40.067951
 30
0.0
 40
0.3
  1
TIPUS   NT437
  7
ROMANC
  0
TEXT
  8
0
 10
238.284301
 20
38.983647
 30
0.0
 40
0.3
  1
S = 437 dm
  7
ROMANC
  0
LINE
  8
0
 10
235.741235
 20
27.622092
 30
0.0
 11
246.241235
 21
27.622092
 31
0.0
  0
LINE
  8
0
 10
246.241235
 20
42.472092
 30
0.0
 11
235.741235
 21
42.472092
 31
0.0
  0
LINE
  8
0
 10
246.241235
 20
27.622092
 30
0.0
 11
246.241235
 21
42.472092
 31
0.0
  0
LINE
  8
0
 10
243.322071
 20
34.634983
 30
0.0
 11
243.322071
 21
32.131996
 31
0.0
  0
LINE
  8
0
 10
242.437983
 20
33.545588
 30
0.0
 11
242.437983
 21
34.634983
 31
0.0
  0
LINE
  8
0
 10
243.322071
 20
34.634983
 30
0.0
 11
240.792235
 21
34.634983
 31
0.0
  0
LINE
  8
0
 10
242.437983
 20
32.245567
 30
0.0
 11
242.437983
 21
32.131996
 31
0.0
  0
LINE
  8
0
 10
243.322071
 20
32.131996
 30
0.0
 11
240.733926
 21
32.131996
 31
0.0
  0
LINE
  8
0
 10
239.856942
 20
32.221293
 30
0.0
 11
239.856942
 21
31.713838
 31
0.0
  0
LINE
  8
0
 10
239.856942
 20
31.713838
 30
0.0
 11
241.76858
 21
31.713838
 31
0.0
  0
LINE
  8
0
 10
241.76858
 20
31.713838
 30
0.0
 11
241.768949
 21
32.221293
 31
0.0
  0
LINE
  8
0
 10
239.837946
 20
33.545567
 30
0.0
 11
239.837946
 21
32.245567
 31
0.0
  0
ARC
  8
0
 10
239.862952
 20
32.245567
 30
0.0
 40
0.025007
 50
180.0
 51
256.092622
  0
ARC
  8
0
 10
240.320144
 20
34.091971
 30
0.0
 40
1.927173
 50
256.092622
 51
264.143986
  0
ARC
  8
0
 10
240.613267
 20
36.949927
 30
0.0
 40
4.800121
 50
264.143986
 51
267.567341
  0
ARC
  8
0
 10
240.812946
 20
41.65007
 30
0.0
 40
9.504503
 50
267.567341
 51
270.0
  0
ARC
  8
0
 10
240.812946
 20
41.65007
 30
0.0
 40
9.504503
 50
270.0
 51
272.432659
  0
ARC
  8
0
 10
241.012624
 20
36.949927
 30
0.0
 40
4.800121
 50
272.432659
 51
275.856014
  0
ARC
  8
0
 10
241.305747
 20
34.091971
 30
0.0
 40
1.927173
 50
275.856014
 51
283.907378
  0
ARC
  8
0
 10
241.762939
 20
32.245567
 30
0.0
 40
0.025007
 50
283.907378
 51
0.0
  0
LINE
  8
0
 10
241.787946
 20
32.245567
 30
0.0
 11
241.787946
 21
33.545567
 31
0.0
  0
ARC
  8
0
 10
240.549451
 20
33.545567
 30
0.0
 40
1.238494
 50
0.0
 51
20.1604
  0
ARC
  8
0
 10
240.678143
 20
33.592815
 30
0.0
 40
1.101403
 50
20.1604
 51
41.552613
  0
ARC
  8
0
 10
240.760273
 20
33.665612
 30
0.0
 40
0.991655
 50
41.552613
 51
64.952476
  0
ARC
  8
0
 10
240.812946
 20
33.778325
 30
0.0
 40
0.867242
 50
64.952476
 51
90.0
  0
ARC
  8
0
 10
240.812946
 20
33.778325
 30
0.0
 40
0.867242
 50
90.0
 51
115.047524
  0
ARC
  8
0
 10
240.865618
 20
33.665612
 30
0.0
 40
0.991655
 50
115.047524
 51
138.447387
  0
ARC
  8
0
 10
240.947748
 20
33.592815
 30
0.0
 40
1.101403
 50
138.447387
 51
159.8396
  0
ARC
  8
0
 10
241.07644
 20
33.545567
 30
0.0
 40
1.238494
 50
159.8396
 51
180.0
  0
LINE
  8
0
 10
239.827946
 20
33.545567
 30
0.0
 11
239.827946
 21
32.245567
 31
0.0
  0
ARC
  8
0
 10
239.862952
 20
32.245567
 30
0.0
 40
0.035007
 50
180.0
 51
256.092622
  0
ARC
  8
0
 10
240.320144
 20
34.091971
 30
0.0
 40
1.937173
 50
256.092622
 51
264.143986
  0
ARC
  8
0
 10
240.613267
 20
36.949927
 30
0.0
 40
4.810121
 50
264.143986
 51
267.567341
  0
ARC
  8
0
 10
240.812946
 20
41.65007
 30
0.0
 40
9.514503
 50
267.567341
 51
270.0
  0
ARC
  8
0
 10
240.812946
 20
41.65007
 30
0.0
 40
9.514503
 50
270.0
 51
272.432659
  0
ARC
  8
0
 10
241.012624
 20
36.949927
 30
0.0
 40
4.810121
 50
272.432659
 51
275.856014
  0
ARC
  8
0
 10
241.305747
 20
34.091971
 30
0.0
 40
1.937173
 50
275.856014
 51
283.907378
  0
ARC
  8
0
 10
241.762939
 20
32.245567
 30
0.0
 40
0.035007
 50
283.907378
 51
0.0
  0
LINE
  8
0
 10
241.797946
 20
32.245567
 30
0.0
 11
241.797946
 21
33.545567
 31
0.0
  0
ARC
  8
0
 10
240.549451
 20
33.545567
 30
0.0
 40
1.248494
 50
360.0
 51
20.1604
  0
ARC
  8
0
 10
240.678143
 20
33.592815
 30
0.0
 40
1.111403
 50
20.1604
 51
41.552613
  0
ARC
  8
0
 10
240.760273
 20
33.665612
 30
0.0
 40
1.001655
 50
41.552613
 51
64.952476
  0
ARC
  8
0
 10
240.812946
 20
33.778325
 30
0.0
 40
0.877242
 50
64.952476
 51
90.0
  0
ARC
  8
0
 10
240.812946
 20
33.778325
 30
0.0
 40
0.877242
 50
90.0
 51
115.047524
  0
ARC
  8
0
 10
240.865618
 20
33.665612
 30
0.0
 40
1.001655
 50
115.047524
 51
138.447387
  0
ARC
  8
0
 10
240.947748
 20
33.592815
 30
0.0
 40
1.111403
 50
138.447387
 51
159.8396
  0
ARC
  8
0
 10
241.07644
 20
33.545567
 30
0.0
 40
1.248494
 50
159.8396
 51
180.0
  0
LINE
  8
0
 10
239.847946
 20
33.545567
 30
0.0
 11
239.847946
 21
32.245567
 31
0.0
  0
ARC
  8
0
 10
239.862952
 20
32.245567
 30
0.0
 40
0.015007
 50
180.0
 51
256.092622
  0
ARC
  8
0
 10
240.320144
 20
34.091971
 30
0.0
 40
1.917173
 50
256.092622
 51
264.143986
  0
ARC
  8
0
 10
240.613267
 20
36.949927
 30
0.0
 40
4.790121
 50
264.143986
 51
267.567341
  0
ARC
  8
0
 10
240.812946
 20
41.65007
 30
0.0
 40
9.494503
 50
267.567341
 51
270.0
  0
ARC
  8
0
 10
240.812946
 20
41.65007
 30
0.0
 40
9.494503
 50
270.0
 51
272.432659
  0
ARC
  8
0
 10
241.012624
 20
36.949927
 30
0.0
 40
4.790121
 50
272.432659
 51
275.856014
  0
ARC
  8
0
 10
241.305747
 20
34.091971
 30
0.0
 40
1.917173
 50
275.856014
 51
283.907378
  0
ARC
  8
0
 10
241.762939
 20
32.245567
 30
0.0
 40
0.015007
 50
283.907378
 51
0.0
  0
LINE
  8
0
 10
241.777946
 20
32.245567
 30
0.0
 11
241.777946
 21
33.545567
 31
0.0
  0
ARC
  8
0
 10
240.549451
 20
33.545567
 30
0.0
 40
1.228494
 50
0.0
 51
20.1604
  0
ARC
  8
0
 10
240.678143
 20
33.592815
 30
0.0
 40
1.091403
 50
20.1604
 51
41.552613
  0
ARC
  8
0
 10
240.760273
 20
33.665612
 30
0.0
 40
0.981655
 50
41.552613
 51
64.952476
  0
ARC
  8
0
 10
240.812946
 20
33.778325
 30
0.0
 40
0.857242
 50
64.952476
 51
90.0
  0
ARC
  8
0
 10
240.812946
 20
33.778325
 30
0.0
 40
0.857242
 50
90.0
 51
115.047524
  0
ARC
  8
0
 10
240.865618
 20
33.665612
 30
0.0
 40
0.981655
 50
115.047524
 51
138.447387
  0
ARC
  8
0
 10
240.947748
 20
33.592815
 30
0.0
 40
1.091403
 50
138.447387
 51
159.8396
  0
ARC
  8
0
 10
241.07644
 20
33.545567
 30
0.0
 40
1.228494
 50
159.8396
 51
180.0
  0
LINE
  8
0
 10
241.787946
 20
32.245567
 30
0.0
 11
242.437983
 21
32.245567
 31
0.0
  0
LINE
  8
0
 10
242.437983
 20
32.245567
 30
0.0
 11
242.437983
 21
33.545588
 31
0.0
  0
LINE
  8
0
 10
242.437983
 20
33.545588
 30
0.0
 11
241.787946
 21
33.545567
 31
0.0
  0
LINE
  8
0
 10
243.369021
 20
32.171699
 30
0.0
 11
243.275122
 21
32.092294
 31
0.0
  0
LINE
  8
0
 10
243.369021
 20
34.674686
 30
0.0
 11
243.275122
 21
34.595281
 31
0.0
  0
LINE
  8
0
 10
242.484933
 20
34.674686
 30
0.0
 11
242.391034
 21
34.595281
 31
0.0
  0
LINE
  8
0
 10
242.484933
 20
33.585291
 30
0.0
 11
242.391034
 21
33.505885
 31
0.0
  0
LINE
  8
0
 10
242.484933
 20
32.285269
 30
0.0
 11
242.391034
 21
32.205864
 31
0.0
  0
LINE
  8
0
 10
242.484933
 20
32.171699
 30
0.0
 11
242.391034
 21
32.092294
 31
0.0
  0
LINE
  8
0
 10
241.81553
 20
31.753541
 30
0.0
 11
241.721631
 21
31.674136
 31
0.0
  0
LINE
  8
0
 10
239.903891
 20
31.753541
 30
0.0
 11
239.809992
 21
31.674136
 31
0.0
  0
TEXT
  8
0
 10
243.401867
 20
33.322065
 30
0.0
 40
0.1
  1
2.50
  7
ROMANC
  0
ENDSEC
  0
EOF
