  0
SECTION
  2
HEADER
  9
$ACADVER
  1
AC1009
  9
$INSBASE
 10
0.0
 20
0.0
 30
0.0
  9
$EXTMIN
 10
281.396000
 20
29.897000
 30
-2147483.648000
  9
$EXTMAX
 10
291.896000
 20
44.747000
 30
0.000000
  9
$LIMMIN
 10
280.396000
 20
28.897000
  9
$LIMMAX
 10
292.896000
 20
43.747000
  9
$ORTHOMODE
 70
     0
  9
$REGENMODE
 70
     1
  9
$FILLMODE
 70
     1
  9
$QTEXTMODE
 70
     0
  9
$MIRRTEXT
 70
     1
  9
$DRAGMODE
 70
     2
  9
$LTSCALE
 40
1.0
  9
$OSMODE
 70
     0
  9
$ATTMODE
 70
     1
  9
$TEXTSIZE
 40
0.2
  9
$TRACEWID
 40
0.05
  9
$TEXTSTYLE
  7
STANDARD
  9
$CLAYER
  8
0
  9
$CELTYPE
  6
BYLAYER
  9
$CECOLOR
 62
   256
  9
$DIMSCALE
 40
1.0
  9
$DIMASZ
 40
0.18
  9
$DIMEXO
 40
0.0625
  9
$DIMDLI
 40
0.38
  9
$DIMRND
 40
0.0
  9
$DIMDLE
 40
0.0
  9
$DIMEXE
 40
0.18
  9
$DIMTP
 40
0.0
  9
$DIMTM
 40
0.0
  9
$DIMTXT
 40
0.18
  9
$DIMCEN
 40
0.09
  9
$DIMTSZ
 40
0.0
  9
$DIMTOL
 70
     0
  9
$DIMLIM
 70
     0
  9
$DIMTIH
 70
     1
  9
$DIMTOH
 70
     1
  9
$DIMSE1
 70
     0
  9
$DIMSE2
 70
     0
  9
$DIMTAD
 70
     0
  9
$DIMZIN
 70
     0
  9
$DIMBLK
  1

  9
$DIMASO
 70
     1
  9
$DIMSHO
 70
     1
  9
$DIMPOST
  1

  9
$DIMAPOST
  1

  9
$DIMALT
 70
     0
  9
$DIMALTD
 70
     2
  9
$DIMALTF
 40
25.4
  9
$DIMLFAC
 40
1.0
  9
$DIMTOFL
 70
     0
  9
$DIMTVP
 40
0.0
  9
$DIMTIX
 70
     0
  9
$DIMSOXD
 70
     0
  9
$DIMSAH
 70
     0
  9
$DIMBLK1
  1

  9
$DIMBLK2
  1

  9
$DIMSTYLE
  2
*UNNAMED
  9
$DIMCLRD
 70
     0
  9
$DIMCLRE
 70
     0
  9
$DIMCLRT
 70
     0
  9
$DIMTFAC
 40
1.0
  9
$DIMGAP
 40
0.09
  9
$LUNITS
 70
     2
  9
$LUPREC
 70
     4
  9
$AXISMODE
 70
     0
  9
$AXISUNIT
 10
0.0
 20
0.0
  9
$SKETCHINC
 40
0.1
  9
$FILLETRAD
 40
0.0
  9
$AUNITS
 70
     0
  9
$AUPREC
 70
     0
  9
$MENU
  1
acad
  9
$ELEVATION
 40
0.0
  9
$PELEVATION
 40
0.0
  9
$THICKNESS
 40
0.0
  9
$LIMCHECK
 70
     0
  9
$BLIPMODE
 70
     1
  9
$CHAMFERA
 40
0.0
  9
$CHAMFERB
 40
0.0
  9
$SKPOLY
 70
     0
  9
$TDCREATE
 40
2448315.373408102
  9
$TDUPDATE
 40
2448315.373408102
  9
$TDINDWG
 40
0.0000000000
  9
$TDUSRTIMER
 40
0.0000000000
  9
$USRTIMER
 70
     1
  9
$ANGBASE
 50
0.0
  9
$ANGDIR
 70
     0
  9
$PDMODE
 70
     0
  9
$PDSIZE
 40
0.0
  9
$PLINEWID
 40
0.0
  9
$COORDS
 70
     0
  9
$SPLFRAME
 70
     0
  9
$SPLINETYPE
 70
     6
  9
$SPLINESEGS
 70
     8
  9
$ATTDIA
 70
     0
  9
$ATTREQ
 70
     1
  9
$HANDLING
 70
     0
  9
$HANDSEED
  5
0
  9
$SURFTAB1
 70
     6
  9
$SURFTAB2
 70
     6
  9
$SURFTYPE
 70
     6
  9
$SURFU
 70
     6
  9
$SURFV
 70
     6
  9
$UCSNAME
  2

  9
$UCSORG
 10
0.0
 20
0.0
 30
0.0
  9
$UCSXDIR
 10
1.0
 20
0.0
 30
0.0
  9
$UCSYDIR
 10
0.0
 20
1.0
 30
0.0
  9
$PUCSNAME
  2

  9
$PUCSORG
 10
0.0
 20
0.0
 30
0.0
  9
$PUCSXDIR
 10
1.0
 20
0.0
 30
0.0
  9
$PUCSYDIR
 10
0.0
 20
1.0
 30
0.0
  9
$USERI1
 70
     0
  9
$USERI2
 70
     0
  9
$USERI3
 70
     0
  9
$USERI4
 70
     0
  9
$USERI5
 70
     0
  9
$USERR1
 40
0.0
  9
$USERR2
 40
0.0
  9
$USERR3
 40
0.0
  9
$USERR4
 40
0.0
  9
$USERR5
 40
0.0
  9
$WORLDVIEW
 70
     1
  9
$SHADEDGE
 70
     3
  9
$SHADEDIF
 70
    70
  9
$TILEMODE
 70
     1
  9
$MAXACTVP
 70
    16
  9
$PINSBASE
 10
0.0
 20
0.0
 30
0.0
  9
$PLIMCHECK
 70
     0
  9
$PEXTMIN
 10
1.000000E+20
 20
1.000000E+20
 30
1.000000E+20
  9
$PEXTMAX
 10
-1.000000E+20
 20
-1.000000E+20
 30
-1.000000E+20
  9
$PLIMMIN
 10
0.0
 20
0.0
  9
$PLIMMAX
 10
12.0
 20
9.0
  9
$UNITMODE
 70
     0
  9
$VISRETAIN
 70
     0
  0
ENDSEC
  0
SECTION
  2
TABLES
  0
TABLE
  2
LTYPE
 70
    1
  0
LTYPE
  2
CONTINUOUS
 70
    64
3
Solid line
 72
    65
 73
0
 40
0.000000
  0
ENDTAB
  0
TABLE
  2
LAYER
 70
    8
  0
LAYER
  2
0
 70
    64
 62
7
  6
CONTINUOUS
  0
LAYER
  2
1
 70
    64
 62
7
  6
CONTINUOUS
  0
LAYER
  2
7
 70
    64
 62
7
  6
CONTINUOUS
  0
LAYER
  2
8
 70
    64
 62
7
  6
CONTINUOUS
  0
LAYER
  2
9
 70
    64
 62
7
  6
CONTINUOUS
  0
LAYER
  2
22
 70
    64
 62
7
  6
CONTINUOUS
  0
LAYER
  2
25
 70
    64
 62
7
  6
CONTINUOUS
  0
LAYER
  2
0
 70
    64
 62
7
  6
CONTINUOUS
  0
ENDTAB
  0
TABLE
  2
STYLE
 70
    1
  0
STYLE
  2
ROMANC
70
     0
 40
0.0
 41
1.0
 50
0.0
 71
     0
 42
0.2
  3
ROMANC
  4

  0
ENDTAB
  0
ENDSEC
  0
SECTION
  2
BLOCKS
  0
ENDSEC
  0
SECTION
  2
ENTITIES
  0
TEXT
  8
0
  6
CONTINUOUS
 40
0.100000
 10
287.008000
 20
41.338000
  1
2
  7
ROMANC
  0
TEXT
  8
0
  6
CONTINUOUS
 40
0.300000
 10
283.926000
 20
41.768000
  1
ESCALA  1:50
  7
ROMANC
  0
POLYLINE
  8
0
  6
CONTINUOUS
 66
     1
 70
     1
  0
VERTEX
  8
0
  6
CONTINUOUS
 10
281.396000
 20
44.747000
  0
VERTEX
  8
0
  6
CONTINUOUS
 10
291.896000
 20
44.747000
  0
VERTEX
  8
0
  6
CONTINUOUS
 10
291.896000
 20
29.897000
  0
VERTEX
  8
0
  6
CONTINUOUS
 10
281.396000
 20
29.897000
  0
SEQEND
  8
0
  0
TEXT
  8
0
  6
CONTINUOUS
 40
0.300000
 10
283.945000
 20
41.099000
  1
S = 401 dm
  7
ROMANC
  0
TEXT
  8
0
  6
CONTINUOUS
 40
0.300000
 10
283.922000
 20
40.529000
  1
P = 77 dm
  7
ROMANC
  0
TEXT
  8
0
  6
CONTINUOUS
 40
0.300000
 10
283.926000
 20
42.381000
  1
TIPUS   NT401
  7
ROMANC
  0
LINE
  8
1
  6
CONTINUOUS
 10
285.247000
 20
36.224000
 11
285.247000
 21
35.024000
  0
LINE
  8
1
  6
CONTINUOUS
 10
285.237000
 20
35.014000
 11
285.738000
 21
35.014000
  0
LINE
  8
1
  6
CONTINUOUS
 10
285.227000
 20
35.004000
 11
285.730000
 21
35.004000
  0
POLYLINE
  8
1
  6
CONTINUOUS
 66
     1
 70
     0
  0
VERTEX
  8
1
  6
CONTINUOUS
 10
285.738418
 20
35.014000
 42
0.044654
  0
VERTEX
  8
1
  6
CONTINUOUS
 10
285.742310
 20
34.992117
 42
0.042230
  0
VERTEX
  8
1
  6
CONTINUOUS
 10
285.749909
 20
34.971217
 42
0.040963
  0
VERTEX
  8
1
  6
CONTINUOUS
 10
285.761519
 20
34.950796
 42
0.036922
  0
VERTEX
  8
1
  6
CONTINUOUS
 10
285.776155
 20
34.932396
 42
0.035518
  0
VERTEX
  8
1
  6
CONTINUOUS
 10
285.794597
 20
34.915105
 42
0.031812
  0
VERTEX
  8
1
  6
CONTINUOUS
 10
285.815200
 20
34.900426
 42
0.030744
  0
VERTEX
  8
1
  6
CONTINUOUS
 10
285.838994
 20
34.887621
 42
0.028207
  0
VERTEX
  8
1
  6
CONTINUOUS
 10
285.864136
 20
34.877691
 42
0.027580
  0
VERTEX
  8
1
  6
CONTINUOUS
 10
285.891406
 20
34.870303
 42
0.026335
  0
VERTEX
  8
1
  6
CONTINUOUS
 10
285.919317
 20
34.865884
 42
0.026131
  0
VERTEX
  8
1
  6
CONTINUOUS
 10
285.947975
 20
34.864388
 42
0.026131
  0
VERTEX
  8
1
  6
CONTINUOUS
 10
285.976633
 20
34.865884
 42
0.026335
  0
VERTEX
  8
1
  6
CONTINUOUS
 10
286.004544
 20
34.870303
 42
0.027580
  0
VERTEX
  8
1
  6
CONTINUOUS
 10
286.031814
 20
34.877691
 42
0.028207
  0
VERTEX
  8
1
  6
CONTINUOUS
 10
286.056956
 20
34.887621
 42
0.030744
  0
VERTEX
  8
1
  6
CONTINUOUS
 10
286.080750
 20
34.900426
 42
0.031812
  0
VERTEX
  8
1
  6
CONTINUOUS
 10
286.101352
 20
34.915105
 42
0.035518
  0
VERTEX
  8
1
  6
CONTINUOUS
 10
286.119795
 20
34.932396
 42
0.036922
  0
VERTEX
  8
1
  6
CONTINUOUS
 10
286.134430
 20
34.950796
 42
0.040963
  0
VERTEX
  8
1
  6
CONTINUOUS
 10
286.146040
 20
34.971217
 42
0.042230
  0
VERTEX
  8
1
  6
CONTINUOUS
 10
286.153639
 20
34.992117
 42
0.044654
  0
VERTEX
  8
1
  6
CONTINUOUS
 10
286.157532
 20
35.014000
  0
SEQEND
  8
0
  0
POLYLINE
  8
1
  6
CONTINUOUS
 66
     1
 70
     0
  0
VERTEX
  8
1
  6
CONTINUOUS
 10
285.729562
 20
35.004000
 42
0.042035
  0
VERTEX
  8
1
  6
CONTINUOUS
 10
285.735016
 20
34.981773
 42
0.039544
  0
VERTEX
  8
1
  6
CONTINUOUS
 10
285.743993
 20
34.960707
 42
0.038388
  0
VERTEX
  8
1
  6
CONTINUOUS
 10
285.756837
 20
34.940227
 42
0.034821
  0
VERTEX
  8
1
  6
CONTINUOUS
 10
285.772530
 20
34.921817
 42
0.033613
  0
VERTEX
  8
1
  6
CONTINUOUS
 10
285.791844
 20
34.904624
 42
0.030427
  0
VERTEX
  8
1
  6
CONTINUOUS
 10
285.813201
 20
34.890021
 42
0.029511
  0
VERTEX
  8
1
  6
CONTINUOUS
 10
285.837554
 20
34.877353
 42
0.027324
  0
VERTEX
  8
1
  6
CONTINUOUS
 10
285.863192
 20
34.867518
 42
0.026781
  0
VERTEX
  8
1
  6
CONTINUOUS
 10
285.890812
 20
34.860227
 42
0.025701
  0
VERTEX
  8
1
  6
CONTINUOUS
 10
285.919047
 20
34.855863
 42
0.025524
  0
VERTEX
  8
1
  6
CONTINUOUS
 10
285.947975
 20
34.854389
 42
0.025524
  0
VERTEX
  8
1
  6
CONTINUOUS
 10
285.976902
 20
34.855863
 42
0.025701
  0
VERTEX
  8
1
  6
CONTINUOUS
 10
286.005137
 20
34.860227
 42
0.026781
  0
VERTEX
  8
1
  6
CONTINUOUS
 10
286.032757
 20
34.867518
 42
0.027324
  0
VERTEX
  8
1
  6
CONTINUOUS
 10
286.058395
 20
34.877353
 42
0.029511
  0
VERTEX
  8
1
  6
CONTINUOUS
 10
286.082748
 20
34.890021
 42
0.030427
  0
VERTEX
  8
1
  6
CONTINUOUS
 10
286.104105
 20
34.904624
 42
0.033613
  0
VERTEX
  8
1
  6
CONTINUOUS
 10
286.123419
 20
34.921817
 42
0.034821
  0
VERTEX
  8
1
  6
CONTINUOUS
 10
286.139112
 20
34.940227
 42
0.038388
  0
VERTEX
  8
1
  6
CONTINUOUS
 10
286.151957
 20
34.960707
 42
0.039544
  0
VERTEX
  8
1
  6
CONTINUOUS
 10
286.160934
 20
34.981773
 42
0.042035
  0
VERTEX
  8
1
  6
CONTINUOUS
 10
286.166387
 20
35.004000
  0
SEQEND
  8
0
  0
LINE
  8
1
  6
CONTINUOUS
 10
286.158000
 20
35.014000
 11
287.257000
 21
35.014000
  0
LINE
  8
1
  6
CONTINUOUS
 10
286.166000
 20
35.004000
 11
287.267000
 21
35.004000
  0
LINE
  8
1
  6
CONTINUOUS
 10
285.237000
 20
36.224000
 11
285.237000
 21
35.014000
  0
LINE
  8
1
  6
CONTINUOUS
 10
285.227000
 20
36.224000
 11
285.227000
 21
35.004000
  0
ARC
  8
1
  6
CONTINUOUS
 10
286.247975
 20
36.224387
 40
1.010000
 50
0.000000
 51
180.000000
  0
ARC
  8
1
  6
CONTINUOUS
 10
286.247975
 20
36.224387
 40
1.020000
 50
0.000000
 51
180.000000
  0
LINE
  8
1
  6
CONTINUOUS
 10
287.257000
 20
35.014000
 11
287.257000
 21
36.224000
  0
LINE
  8
1
  6
CONTINUOUS
 10
287.267000
 20
35.004000
 11
287.267000
 21
36.224000
  0
LINE
  8
1
  6
CONTINUOUS
 10
285.247000
 20
35.024000
 11
285.747000
 21
35.024000
  0
TEXT
  8
1
  6
CONTINUOUS
 40
0.075000
 10
285.360000
 20
34.478000
  1
0.50
  7
ROMANC
  0
LINE
  8
1
  6
CONTINUOUS
 10
285.097000
 20
34.516000
 11
285.247000
 21
34.516000
  0
LINE
  8
1
  6
CONTINUOUS
 10
285.897000
 20
34.516000
 11
285.747000
 21
34.516000
  0
LINE
  8
1
  6
CONTINUOUS
 10
285.284000
 20
34.535000
 11
285.210000
 21
34.497000
  0
LINE
  8
1
  6
CONTINUOUS
 10
285.710000
 20
34.497000
 11
285.784000
 21
34.535000
  0
LINE
  8
1
  6
CONTINUOUS
 10
285.247000
 20
34.986000
 11
285.247000
 21
34.478000
  0
LINE
  8
1
  6
CONTINUOUS
 10
285.747000
 20
34.986000
 11
285.747000
 21
34.478000
  0
LINE
  8
1
  6
CONTINUOUS
 10
286.147000
 20
35.024000
 11
287.247000
 21
35.024000
  0
TEXT
  8
1
  6
CONTINUOUS
 40
0.075000
 10
285.287000
 20
34.174000
  1
0.40
  7
ROMANC
  0
LINE
  8
1
  6
CONTINUOUS
 10
285.674000
 20
34.212000
 11
285.747000
 21
34.212000
  0
LINE
  8
1
  6
CONTINUOUS
 10
286.297000
 20
34.212000
 11
286.147000
 21
34.212000
  0
LINE
  8
1
  6
CONTINUOUS
 10
285.784000
 20
34.231000
 11
285.710000
 21
34.193000
  0
LINE
  8
1
  6
CONTINUOUS
 10
286.110000
 20
34.193000
 11
286.184000
 21
34.231000
  0
LINE
  8
1
  6
CONTINUOUS
 10
285.747000
 20
34.986000
 11
285.747000
 21
34.174000
  0
LINE
  8
1
  6
CONTINUOUS
 10
286.147000
 20
34.986000
 11
286.147000
 21
34.174000
  0
TEXT
  8
1
  6
CONTINUOUS
 40
0.075000
 10
286.560000
 20
34.478000
  1
1.10
  7
ROMANC
  0
LINE
  8
1
  6
CONTINUOUS
 10
286.522000
 20
34.516000
 11
286.147000
 21
34.516000
  0
LINE
  8
1
  6
CONTINUOUS
 10
286.871000
 20
34.516000
 11
287.247000
 21
34.516000
  0
LINE
  8
1
  6
CONTINUOUS
 10
286.110000
 20
34.497000
 11
286.184000
 21
34.535000
  0
LINE
  8
1
  6
CONTINUOUS
 10
287.284000
 20
34.535000
 11
287.210000
 21
34.497000
  0
LINE
  8
1
  6
CONTINUOUS
 10
286.147000
 20
34.986000
 11
286.147000
 21
34.478000
  0
LINE
  8
1
  6
CONTINUOUS
 10
287.247000
 20
34.986000
 11
287.247000
 21
34.478000
  0
POLYLINE
  8
1
  6
CONTINUOUS
 66
     1
 70
     0
  0
VERTEX
  8
1
  6
CONTINUOUS
 10
285.747975
 20
35.024387
 42
0.043662
  0
VERTEX
  8
1
  6
CONTINUOUS
 10
285.749725
 20
35.004689
 42
0.042016
  0
VERTEX
  8
1
  6
CONTINUOUS
 10
285.754790
 20
34.985564
 42
0.040948
  0
VERTEX
  8
1
  6
CONTINUOUS
 10
285.763366
 20
34.966705
 42
0.037204
  0
VERTEX
  8
1
  6
CONTINUOUS
 10
285.774770
 20
34.949387
 42
0.035805
  0
VERTEX
  8
1
  6
CONTINUOUS
 10
285.789606
 20
34.932785
 42
0.031954
  0
VERTEX
  8
1
  6
CONTINUOUS
 10
285.806553
 20
34.918321
 42
0.030788
  0
VERTEX
  8
1
  6
CONTINUOUS
 10
285.826561
 20
34.905192
 42
0.027894
  0
VERTEX
  8
1
  6
CONTINUOUS
 10
285.847975
 20
34.894483
 42
0.027129
  0
VERTEX
  8
1
  6
CONTINUOUS
 10
285.871697
 20
34.885726
 42
0.025427
  0
VERTEX
  8
1
  6
CONTINUOUS
 10
285.896211
 20
34.879498
 42
0.025057
  0
VERTEX
  8
1
  6
CONTINUOUS
 10
285.921965
 20
34.875662
 42
0.024503
  0
VERTEX
  8
1
  6
CONTINUOUS
 10
285.947975
 20
34.874387
 42
0.024503
  0
VERTEX
  8
1
  6
CONTINUOUS
 10
285.973984
 20
34.875662
 42
0.025057
  0
VERTEX
  8
1
  6
CONTINUOUS
 10
285.999739
 20
34.879498
 42
0.025427
  0
VERTEX
  8
1
  6
CONTINUOUS
 10
286.024253
 20
34.885726
 42
0.027129
  0
VERTEX
  8
1
  6
CONTINUOUS
 10
286.047975
 20
34.894483
 42
0.027894
  0
VERTEX
  8
1
  6
CONTINUOUS
 10
286.069388
 20
34.905192
 42
0.030788
  0
VERTEX
  8
1
  6
CONTINUOUS
 10
286.089396
 20
34.918321
 42
0.031954
  0
VERTEX
  8
1
  6
CONTINUOUS
 10
286.106344
 20
34.932785
 42
0.035805
  0
VERTEX
  8
1
  6
CONTINUOUS
 10
286.121180
 20
34.949387
 42
0.037204
  0
VERTEX
  8
1
  6
CONTINUOUS
 10
286.132583
 20
34.966705
 42
0.040948
  0
VERTEX
  8
1
  6
CONTINUOUS
 10
286.141160
 20
34.985564
 42
0.042016
  0
VERTEX
  8
1
  6
CONTINUOUS
 10
286.146225
 20
35.004689
 42
0.043662
  0
VERTEX
  8
1
  6
CONTINUOUS
 10
286.147975
 20
35.024387
  0
SEQEND
  8
0
  0
TEXT
  8
1
  6
CONTINUOUS
 40
0.075000
 10
286.710000
 20
35.226000
  1
0.15
 50
90.000000
  7
ROMANC
  0
LINE
  8
1
  6
CONTINUOUS
 10
286.673000
 20
35.112000
 11
286.673000
 21
35.024000
  0
LINE
  8
1
  6
CONTINUOUS
 10
286.673000
 20
34.724000
 11
286.673000
 21
34.874000
  0
LINE
  8
1
  6
CONTINUOUS
 10
286.692000
 20
34.986000
 11
286.654000
 21
35.062000
  0
LINE
  8
1
  6
CONTINUOUS
 10
286.654000
 20
34.912000
 11
286.692000
 21
34.836000
  0
LINE
  8
1
  6
CONTINUOUS
 10
286.185000
 20
35.024000
 11
286.711000
 21
35.024000
  0
LINE
  8
1
  6
CONTINUOUS
 10
285.986000
 20
34.874000
 11
286.711000
 21
34.874000
  0
LINE
  8
1
  6
CONTINUOUS
 10
287.247000
 20
35.024000
 11
287.247000
 21
36.224000
  0
TEXT
  8
1
  6
CONTINUOUS
 40
0.075000
 10
288.240000
 20
35.487000
  1
1.20
 50
90.000000
  7
ROMANC
  0
LINE
  8
1
  6
CONTINUOUS
 10
288.203000
 20
35.449000
 11
288.203000
 21
35.024000
  0
LINE
  8
1
  6
CONTINUOUS
 10
288.203000
 20
35.798000
 11
288.203000
 21
36.224000
  0
LINE
  8
1
  6
CONTINUOUS
 10
288.222000
 20
34.986000
 11
288.184000
 21
35.062000
  0
LINE
  8
1
  6
CONTINUOUS
 10
288.184000
 20
36.262000
 11
288.222000
 21
36.186000
  0
LINE
  8
1
  6
CONTINUOUS
 10
287.285000
 20
35.024000
 11
288.241000
 21
35.024000
  0
LINE
  8
1
  6
CONTINUOUS
 10
287.285000
 20
36.224000
 11
288.241000
 21
36.224000
  0
ARC
  8
1
  6
CONTINUOUS
 10
286.247975
 20
36.224387
 40
1.000000
 50
0.000000
 51
180.000000
  0
TEXT
  8
1
  6
CONTINUOUS
 40
0.075000
 10
288.648000
 20
35.912000
  1
2.35
 50
90.000000
  7
ROMANC
  0
LINE
  8
1
  6
CONTINUOUS
 10
288.611000
 20
35.874000
 11
288.611000
 21
34.874000
  0
LINE
  8
1
  6
CONTINUOUS
 10
288.611000
 20
36.223000
 11
288.611000
 21
37.224000
  0
LINE
  8
1
  6
CONTINUOUS
 10
288.630000
 20
34.836000
 11
288.592000
 21
34.912000
  0
LINE
  8
1
  6
CONTINUOUS
 10
288.592000
 20
37.262000
 11
288.630000
 21
37.186000
  0
LINE
  8
1
  6
CONTINUOUS
 10
286.749000
 20
34.874000
 11
288.649000
 21
34.874000
  0
LINE
  8
1
  6
CONTINUOUS
 10
286.286000
 20
37.224000
 11
288.649000
 21
37.224000
  0
TEXT
  8
1
  6
CONTINUOUS
 40
0.075000
 10
286.111000
 20
37.894000
  1
2.00
  7
ROMANC
  0
LINE
  8
1
  6
CONTINUOUS
 10
286.073000
 20
37.931000
 11
285.248000
 21
37.931000
  0
LINE
  8
1
  6
CONTINUOUS
 10
286.422000
 20
37.931000
 11
287.248000
 21
37.931000
  0
LINE
  8
1
  6
CONTINUOUS
 10
285.210000
 20
37.912000
 11
285.286000
 21
37.950000
  0
LINE
  8
1
  6
CONTINUOUS
 10
287.286000
 20
37.950000
 11
287.210000
 21
37.912000
  0
LINE
  8
1
  6
CONTINUOUS
 10
285.248000
 20
36.262000
 11
285.248000
 21
37.969000
  0
LINE
  8
1
  6
CONTINUOUS
 10
287.248000
 20
36.262000
 11
287.248000
 21
37.969000
  0
ENDSEC
  0
EOF
