  0
SECTION
  2
HEADER
  9
$ACADVER
  1
AC1009
  9
$INSBASE
 10
0.0
 20
0.0
 30
0.0
  9
$EXTMIN
 10
281.396
 20
29.897
 30
0.0
  9
$EXTMAX
 10
291.896
 20
44.747
 30
0.0
  9
$LIMMIN
 10
280.396
 20
28.897
  9
$LIMMAX
 10
292.896
 20
43.747
  9
$ORTHOMODE
 70
     0
  9
$REGENMODE
 70
     1
  9
$FILLMODE
 70
     1
  9
$QTEXTMODE
 70
     0
  9
$MIRRTEXT
 70
     1
  9
$DRAGMODE
 70
     2
  9
$LTSCALE
 40
1.0
  9
$OSMODE
 70
     0
  9
$ATTMODE
 70
     1
  9
$TEXTSIZE
 40
0.2
  9
$TRACEWID
 40
0.05
  9
$TEXTSTYLE
  7
ROMANC
  9
$CLAYER
  8
0
  9
$CELTYPE
  6
BYLAYER
  9
$CECOLOR
 62
   256
  9
$DIMSCALE
 40
1.0
  9
$DIMASZ
 40
0.0
  9
$DIMEXO
 40
0.0625
  9
$DIMDLI
 40
0.38
  9
$DIMRND
 40
0.0
  9
$DIMDLE
 40
0.0
  9
$DIMEXE
 40
0.05
  9
$DIMTP
 40
0.0
  9
$DIMTM
 40
0.0
  9
$DIMTXT
 40
0.075
  9
$DIMCEN
 40
0.09
  9
$DIMTSZ
 40
0.03
  9
$DIMTOL
 70
     0
  9
$DIMLIM
 70
     0
  9
$DIMTIH
 70
     1
  9
$DIMTOH
 70
     1
  9
$DIMSE1
 70
     0
  9
$DIMSE2
 70
     0
  9
$DIMTAD
 70
     0
  9
$DIMZIN
 70
     0
  9
$DIMBLK
  1

  9
$DIMASO
 70
     1
  9
$DIMSHO
 70
     1
  9
$DIMPOST
  1

  9
$DIMAPOST
  1

  9
$DIMALT
 70
     0
  9
$DIMALTD
 70
     2
  9
$DIMALTF
 40
25.4
  9
$DIMLFAC
 40
1.0
  9
$DIMTOFL
 70
     0
  9
$DIMTVP
 40
0.0
  9
$DIMTIX
 70
     1
  9
$DIMSOXD
 70
     0
  9
$DIMSAH
 70
     0
  9
$DIMBLK1
  1

  9
$DIMBLK2
  1

  9
$DIMSTYLE
  2
*UNNAMED
  9
$DIMCLRD
 70
     0
  9
$DIMCLRE
 70
     0
  9
$DIMCLRT
 70
     0
  9
$DIMTFAC
 40
2.4
  9
$DIMGAP
 40
0.09
  9
$LUNITS
 70
     2
  9
$LUPREC
 70
     4
  9
$SKETCHINC
 40
0.1
  9
$FILLETRAD
 40
0.0
  9
$AUNITS
 70
     0
  9
$AUPREC
 70
     0
  9
$MENU
  1
acad
  9
$ELEVATION
 40
0.0
  9
$PELEVATION
 40
0.0
  9
$THICKNESS
 40
0.0
  9
$LIMCHECK
 70
     0
  9
$BLIPMODE
 70
     1
  9
$CHAMFERA
 40
0.0
  9
$CHAMFERB
 40
0.0
  9
$SKPOLY
 70
     0
  9
$TDCREATE
 40
2448315.373408102
  9
$TDUPDATE
 40
2448315.373408102
  9
$TDINDWG
 40
0.0000000000
  9
$TDUSRTIMER
 40
0.0000000000
  9
$USRTIMER
 70
     1
  9
$ANGBASE
 50
0.0
  9
$ANGDIR
 70
     0
  9
$PDMODE
 70
     0
  9
$PDSIZE
 40
0.0
  9
$PLINEWID
 40
0.0
  9
$COORDS
 70
     0
  9
$SPLFRAME
 70
     0
  9
$SPLINETYPE
 70
     6
  9
$SPLINESEGS
 70
     8
  9
$ATTDIA
 70
     0
  9
$ATTREQ
 70
     1
  9
$HANDLING
 70
     0
  9
$HANDSEED
  5
0
  9
$SURFTAB1
 70
     6
  9
$SURFTAB2
 70
     6
  9
$SURFTYPE
 70
     6
  9
$SURFU
 70
     6
  9
$SURFV
 70
     6
  9
$UCSNAME
  2

  9
$UCSORG
 10
0.0
 20
0.0
 30
0.0
  9
$UCSXDIR
 10
1.0
 20
0.0
 30
0.0
  9
$UCSYDIR
 10
0.0
 20
1.0
 30
0.0
  9
$PUCSNAME
  2

  9
$PUCSORG
 10
0.0
 20
0.0
 30
0.0
  9
$PUCSXDIR
 10
1.0
 20
0.0
 30
0.0
  9
$PUCSYDIR
 10
0.0
 20
1.0
 30
0.0
  9
$USERI1
 70
     0
  9
$USERI2
 70
     0
  9
$USERI3
 70
     0
  9
$USERI4
 70
     0
  9
$USERI5
 70
     0
  9
$USERR1
 40
0.0
  9
$USERR2
 40
0.0
  9
$USERR3
 40
0.0
  9
$USERR4
 40
0.0
  9
$USERR5
 40
0.0
  9
$WORLDVIEW
 70
     1
  9
$SHADEDGE
 70
     3
  9
$SHADEDIF
 70
    70
  9
$TILEMODE
 70
     1
  9
$MAXACTVP
 70
    16
  9
$PINSBASE
 10
0.0
 20
0.0
 30
0.0
  9
$PLIMCHECK
 70
     0
  9
$PEXTMIN
 10
1.000000E+20
 20
1.000000E+20
 30
1.000000E+20
  9
$PEXTMAX
 10
-1.000000E+20
 20
-1.000000E+20
 30
-1.000000E+20
  9
$PLIMMIN
 10
0.0
 20
0.0
  9
$PLIMMAX
 10
12.0
 20
9.0
  9
$UNITMODE
 70
     0
  9
$VISRETAIN
 70
     0
  9
$PLINEGEN
 70
     0
  9
$PSLTSCALE
 70
     0
  9
$TREEDEPTH
 70
  3020
  9
$DWGCODEPAGE
  3
iso8859-1
  0
ENDSEC
  0
SECTION
  2
TABLES
  0
TABLE
  2
VPORT
 70
     2
  0
VPORT
  2
*ACTIVE
 70
     0
 10
0.0
 20
0.0
 11
1.0
 21
1.0
 12
293.35785
 22
37.322
 13
0.0
 23
0.0
 14
1.0
 24
1.0
 15
10.0
 25
10.0
 16
0.0
 26
0.0
 36
1.0
 17
0.0
 27
0.0
 37
0.0
 40
14.85
 41
1.611024
 42
50.0
 43
0.0
 44
0.0
 50
0.0
 51
0.0
 71
     0
 72
   100
 73
     1
 74
     0
 75
     0
 76
     0
 77
     0
 78
     0
  0
ENDTAB
  0
TABLE
  2
LTYPE
 70
     1
  0
LTYPE
  2
CONTINUOUS
 70
    64
  3
Solid line
 72
    65
 73
     0
 40
0.0
  0
ENDTAB
  0
TABLE
  2
LAYER
 70
     8
  0
LAYER
  2
0
 70
    64
 62
     7
  6
CONTINUOUS
  0
LAYER
  2
1
 70
    64
 62
     7
  6
CONTINUOUS
  0
LAYER
  2
7
 70
    64
 62
     7
  6
CONTINUOUS
  0
LAYER
  2
8
 70
    64
 62
     7
  6
CONTINUOUS
  0
LAYER
  2
9
 70
    64
 62
     7
  6
CONTINUOUS
  0
LAYER
  2
22
 70
    64
 62
     7
  6
CONTINUOUS
  0
LAYER
  2
25
 70
    64
 62
     7
  6
CONTINUOUS
  0
LAYER
  2
DEFPOINTS
 70
    64
 62
     7
  6
CONTINUOUS
  0
ENDTAB
  0
TABLE
  2
STYLE
 70
     2
  0
STYLE
  2
STANDARD
 70
     0
 40
0.0
 41
1.0
 50
0.0
 71
     0
 42
3.5
  3
txt
  4

  0
STYLE
  2
ROMANC
 70
    64
 40
0.0
 41
1.0
 50
0.0
 71
     0
 42
0.2
  3
romanc
  4

  0
ENDTAB
  0
TABLE
  2
VIEW
 70
     0
  0
ENDTAB
  0
TABLE
  2
UCS
 70
     0
  0
ENDTAB
  0
TABLE
  2
APPID
 70
     1
  0
APPID
  2
ACAD
 70
    64
  0
ENDTAB
  0
TABLE
  2
DIMSTYLE
 70
     0
  0
ENDTAB
  0
ENDSEC
  0
SECTION
  2
BLOCKS
  0
BLOCK
  8
0
  2
*D0
 70
    65
 10
0.0
 20
0.0
 30
0.0
  3
*D
  0
LINE
  8
0
  6
BYBLOCK
 62
     0
 10
286.067
 20
34.2215
 30
0.0
 11
286.067
 21
34.812798
 31
0.0
  0
LINE
  8
0
  6
BYBLOCK
 62
     0
 10
286.748
 20
34.2215
 30
0.0
 11
286.748
 21
34.812798
 31
0.0
  0
LINE
  8
0
  6
BYBLOCK
 62
     0
 10
285.887
 20
34.632798
 30
0.0
 11
285.707
 21
34.632798
 31
0.0
  0
LINE
  8
0
  6
BYBLOCK
 62
     0
 10
286.928
 20
34.632798
 30
0.0
 11
287.108
 21
34.632798
 31
0.0
  0
SOLID
  8
0
  6
BYBLOCK
 62
     0
 10
285.887
 20
34.662798
 30
0.0
 11
285.887
 21
34.602798
 31
0.0
 12
286.067
 22
34.632798
 32
0.0
 13
286.067
 23
34.632798
 33
0.0
  0
SOLID
  8
0
  6
BYBLOCK
 62
     0
 10
286.928
 20
34.662798
 30
0.0
 11
286.928
 21
34.602798
 31
0.0
 12
286.748
 22
34.632798
 32
0.0
 13
286.748
 23
34.632798
 33
0.0
  0
TEXT
  8
0
  6
BYBLOCK
 62
     0
 10
287.198
 20
34.542798
 30
0.0
 40
0.18
  1
0.7
 72
     1
 11
287.363
 21
34.632798
 31
0.0
 73
     2
  0
POINT
  8
DEFPOINTS
  6
BYBLOCK
 62
     0
 10
286.067
 20
34.159
 30
0.0
  0
POINT
  8
DEFPOINTS
  6
BYBLOCK
 62
     0
 10
286.748
 20
34.159
 30
0.0
  0
POINT
  8
DEFPOINTS
  6
BYBLOCK
 62
     0
 10
286.748
 20
34.632798
 30
0.0
  0
ENDBLK
  8
0
  0
BLOCK
  8
0
  2
*D1
 70
    65
 10
0.0
 20
0.0
 30
0.0
  3
*D
  0
LINE
  8
0
  6
BYBLOCK
 62
     0
 10
286.067192
 20
34.221551
 30
0.0
 11
286.067192
 21
34.967541
 31
0.0
  0
LINE
  8
0
  6
BYBLOCK
 62
     0
 10
286.748808
 20
34.221551
 30
0.0
 11
286.748808
 21
34.967541
 31
0.0
  0
LINE
  8
0
  6
BYBLOCK
 62
     0
 10
286.067192
 20
34.787541
 30
0.0
 11
285.707192
 21
34.787541
 31
0.0
  0
LINE
  8
0
  6
BYBLOCK
 62
     0
 10
286.748808
 20
34.787541
 30
0.0
 11
287.108808
 21
34.787541
 31
0.0
  0
LINE
  8
0
  6
BYBLOCK
 62
     0
 10
285.887192
 20
34.607541
 30
0.0
 11
286.247192
 21
34.967541
 31
0.0
  0
LINE
  8
0
  6
BYBLOCK
 62
     0
 10
286.568808
 20
34.607541
 30
0.0
 11
286.928808
 21
34.967541
 31
0.0
  0
TEXT
  8
0
  6
BYBLOCK
 62
     0
 10
286.23925
 20
34.750041
 30
0.0
 40
0.075
  1
0.6816
 72
     1
 11
286.408
 21
34.787541
 31
0.0
 73
     2
  0
POINT
  8
DEFPOINTS
  6
BYBLOCK
 62
     0
 10
286.067192
 20
34.159051
 30
0.0
  0
POINT
  8
DEFPOINTS
  6
BYBLOCK
 62
     0
 10
286.748808
 20
34.159051
 30
0.0
  0
POINT
  8
DEFPOINTS
  6
BYBLOCK
 62
     0
 10
286.748808
 20
34.787541
 30
0.0
  0
ENDBLK
  8
0
  0
BLOCK
  8
0
  2
*D2
 70
    65
 10
0.0
 20
0.0
 30
0.0
  3
*D
  0
LINE
  8
0
  6
BYBLOCK
 62
     0
 10
286.067192
 20
34.221551
 30
0.0
 11
286.067192
 21
34.669811
 31
0.0
  0
LINE
  8
0
  6
BYBLOCK
 62
     0
 10
286.748
 20
34.2215
 30
0.0
 11
286.748
 21
34.669811
 31
0.0
  0
LINE
  8
0
  6
BYBLOCK
 62
     0
 10
286.067192
 20
34.619811
 30
0.0
 11
286.007192
 21
34.619811
 31
0.0
  0
LINE
  8
0
  6
BYBLOCK
 62
     0
 10
286.748
 20
34.619811
 30
0.0
 11
286.808
 21
34.619811
 31
0.0
  0
LINE
  8
0
  6
BYBLOCK
 62
     0
 10
286.037192
 20
34.589811
 30
0.0
 11
286.097192
 21
34.649811
 31
0.0
  0
LINE
  8
0
  6
BYBLOCK
 62
     0
 10
286.718
 20
34.589811
 30
0.0
 11
286.778
 21
34.649811
 31
0.0
  0
TEXT
  8
0
  6
BYBLOCK
 62
     0
 10
286.211167
 20
34.582311
 30
0.0
 40
0.075
  1
0.6808
  7
ROMANC
 72
     1
 11
286.407596
 21
34.619811
 31
0.0
 73
     2
  0
POINT
  8
DEFPOINTS
  6
BYBLOCK
 62
     0
 10
286.067192
 20
34.159051
 30
0.0
  0
POINT
  8
DEFPOINTS
  6
BYBLOCK
 62
     0
 10
286.748
 20
34.159
 30
0.0
  0
POINT
  8
DEFPOINTS
  6
BYBLOCK
 62
     0
 10
286.748
 20
34.619811
 30
0.0
  0
ENDBLK
  8
0
  0
ENDSEC
  0
SECTION
  2
ENTITIES
  0
TEXT
  8
0
  6
CONTINUOUS
 10
286.909
 20
41.324
 30
0.0
 40
0.1
  1
2
  7
ROMANC
  0
TEXT
  8
0
  6
CONTINUOUS
 10
283.926
 20
41.768
 30
0.0
 40
0.3
  1
ESCALA  1:50
  7
ROMANC
  0
POLYLINE
  8
0
  6
CONTINUOUS
 66
     1
 10
0.0
 20
0.0
 30
0.0
 70
     1
  0
VERTEX
  8
0
  6
CONTINUOUS
 10
281.396
 20
44.747
 30
0.0
  0
VERTEX
  8
0
  6
CONTINUOUS
 10
291.896
 20
44.747
 30
0.0
  0
VERTEX
  8
0
  6
CONTINUOUS
 10
291.896
 20
29.897
 30
0.0
  0
VERTEX
  8
0
  6
CONTINUOUS
 10
281.396
 20
29.897
 30
0.0
  0
SEQEND
  8
0
  0
TEXT
  8
0
  6
CONTINUOUS
 10
283.926
 20
42.381
 30
0.0
 40
0.3
  1
TIPUS   NT40
  7
ROMANC
  0
TEXT
  8
0
  6
CONTINUOUS
 10
283.945
 20
41.099
 30
0.0
 40
0.3
  1
S = 40 dm
  7
ROMANC
  0
TEXT
  8
0
  6
CONTINUOUS
 10
283.922
 20
40.529
 30
0.0
 40
0.3
  1
P = 24.5 dm
  7
ROMANC
  0
LINE
  8
1
  6
CONTINUOUS
 10
286.608
 20
33.675
 30
0.0
 11
286.658
 21
33.675
 31
0.0
  0
LINE
  8
1
  6
CONTINUOUS
 10
286.158
 20
33.675
 30
0.0
 11
286.208
 21
33.675
 31
0.0
  0
ARC
  8
1
  6
CONTINUOUS
 10
286.126995
 20
34.170938
 30
0.0
 40
0.050973
 50
133.356825
 51
191.242322
  0
ARC
  8
1
  6
CONTINUOUS
 10
286.689005
 20
34.170938
 30
0.0
 40
0.050973
 50
348.757678
 51
46.643175
  0
ARC
  8
1
  6
CONTINUOUS
 10
286.408
 20
33.496306
 30
0.0
 40
0.778694
 50
66.058253
 51
113.94175
  0
ARC
  8
1
  6
CONTINUOUS
 10
286.408
 20
33.733333
 30
0.0
 40
0.208333
 50
196.260206
 51
343.739797
  0
TEXT
  8
1
  6
CONTINUOUS
 10
286.286
 20
33.34
 30
0.0
 40
0.075
  1
0.40
  7
ROMANC
  0
LINE
  8
1
  6
CONTINUOUS
 10
286.058
 20
33.378
 30
0.0
 11
286.208
 21
33.378
 31
0.0
  0
LINE
  8
1
  6
CONTINUOUS
 10
286.758
 20
33.378
 30
0.0
 11
286.608
 21
33.378
 31
0.0
  0
LINE
  8
1
  6
CONTINUOUS
 10
286.246
 20
33.397
 30
0.0
 11
286.17
 21
33.359
 31
0.0
  0
LINE
  8
1
  6
CONTINUOUS
 10
286.57
 20
33.359
 30
0.0
 11
286.646
 21
33.397
 31
0.0
  0
LINE
  8
1
  6
CONTINUOUS
 10
286.208
 20
33.637
 30
0.0
 11
286.208
 21
33.34
 31
0.0
  0
LINE
  8
1
  6
CONTINUOUS
 10
286.608
 20
33.637
 30
0.0
 11
286.608
 21
33.34
 31
0.0
  0
LINE
  8
1
  6
CONTINUOUS
 10
286.158
 20
33.675
 30
0.0
 11
286.077
 21
34.161
 31
0.0
  0
LINE
  8
1
  6
CONTINUOUS
 10
286.658
 20
33.675
 30
0.0
 11
286.739
 21
34.161
 31
0.0
  0
TEXT
  8
1
  6
CONTINUOUS
 10
286.289
 20
33.142
 30
0.0
 40
0.075
  1
0.50
  7
ROMANC
  0
LINE
  8
1
  6
CONTINUOUS
 10
286.008
 20
33.18
 30
0.0
 11
286.158
 21
33.18
 31
0.0
  0
LINE
  8
1
  6
CONTINUOUS
 10
286.808
 20
33.18
 30
0.0
 11
286.658
 21
33.18
 31
0.0
  0
LINE
  8
1
  6
CONTINUOUS
 10
286.196
 20
33.199
 30
0.0
 11
286.12
 21
33.161
 31
0.0
  0
LINE
  8
1
  6
CONTINUOUS
 10
286.62
 20
33.161
 30
0.0
 11
286.696
 21
33.199
 31
0.0
  0
LINE
  8
1
  6
CONTINUOUS
 10
286.158
 20
33.637
 30
0.0
 11
286.158
 21
33.142
 31
0.0
  0
LINE
  8
1
  6
CONTINUOUS
 10
286.658
 20
33.637
 30
0.0
 11
286.658
 21
33.142
 31
0.0
  0
TEXT
  8
1
  6
CONTINUOUS
 10
285.922
 20
33.781
 30
0.0
 40
0.075
  1
0.75
 50
90.0
  7
ROMANC
  0
LINE
  8
1
  6
CONTINUOUS
 10
285.884
 20
33.743
 30
0.0
 11
285.884
 21
33.525
 31
0.0
  0
LINE
  8
1
  6
CONTINUOUS
 10
285.884
 20
34.055
 30
0.0
 11
285.884
 21
34.275
 31
0.0
  0
LINE
  8
1
  6
CONTINUOUS
 10
285.903
 20
33.488
 30
0.0
 11
285.865
 21
33.562
 31
0.0
  0
LINE
  8
1
  6
CONTINUOUS
 10
285.865
 20
34.312
 30
0.0
 11
285.903
 21
34.238
 31
0.0
  0
LINE
  8
1
  6
CONTINUOUS
 10
286.37
 20
33.525
 30
0.0
 11
285.846
 21
33.525
 31
0.0
  0
LINE
  8
1
  6
CONTINUOUS
 10
286.37
 20
34.275
 30
0.0
 11
285.846
 21
34.275
 31
0.0
  0
TEXT
  8
1
  6
CONTINUOUS
 10
287.048
 20
33.806
 30
0.0
 40
0.075
  1
0.50
 50
90.0
  7
ROMANC
  0
LINE
  8
1
  6
CONTINUOUS
 10
287.011
 20
33.525
 30
0.0
 11
287.011
 21
33.675
 31
0.0
  0
LINE
  8
1
  6
CONTINUOUS
 10
287.011
 20
34.325
 30
0.0
 11
287.011
 21
34.175
 31
0.0
  0
LINE
  8
1
  6
CONTINUOUS
 10
286.992
 20
33.712
 30
0.0
 11
287.03
 21
33.638
 31
0.0
  0
LINE
  8
1
  6
CONTINUOUS
 10
287.03
 20
34.138
 30
0.0
 11
286.992
 21
34.212
 31
0.0
  0
LINE
  8
1
  6
CONTINUOUS
 10
286.696
 20
33.675
 30
0.0
 11
287.049
 21
33.675
 31
0.0
  0
LINE
  8
1
  6
CONTINUOUS
 10
286.753
 20
34.175
 30
0.0
 11
287.049
 21
34.175
 31
0.0
  0
LINE
  8
1
  6
CONTINUOUS
 10
286.666
 20
33.665
 30
0.0
 11
286.748
 21
34.159
 31
0.0
  0
LINE
  8
1
  6
CONTINUOUS
 10
286.674
 20
33.655
 30
0.0
 11
286.758
 21
34.157
 31
0.0
  0
ARC
  8
1
  6
CONTINUOUS
 10
286.689005
 20
34.170938
 30
0.0
 40
0.060973
 50
348.757678
 51
48.315344
  0
ARC
  8
1
  6
CONTINUOUS
 10
286.689005
 20
34.170938
 30
0.0
 40
0.070973
 50
348.757678
 51
49.609181
  0
ARC
  8
1
  6
CONTINUOUS
 10
286.408
 20
33.496306
 30
0.0
 40
0.788694
 50
65.9393
 51
114.0607
  0
ARC
  8
1
  6
CONTINUOUS
 10
286.408
 20
33.496306
 30
0.0
 40
0.798694
 50
65.832064
 51
114.167936
  0
LINE
  8
1
  6
CONTINUOUS
 10
286.149
 20
33.665
 30
0.0
 11
286.067
 21
34.159
 31
0.0
  0
LINE
  8
1
  6
CONTINUOUS
 10
286.141
 20
33.655
 30
0.0
 11
286.057
 21
34.157
 31
0.0
  0
ARC
  8
1
  6
CONTINUOUS
 10
286.126995
 20
34.170938
 30
0.0
 40
0.060973
 50
131.684656
 51
191.242322
  0
ARC
  8
1
  6
CONTINUOUS
 10
286.126995
 20
34.170938
 30
0.0
 40
0.070973
 50
130.390819
 51
191.242322
  0
LINE
  8
1
  6
CONTINUOUS
 10
286.149
 20
33.665
 30
0.0
 11
286.201
 21
33.665
 31
0.0
  0
LINE
  8
1
  6
CONTINUOUS
 10
286.141
 20
33.655
 30
0.0
 11
286.194
 21
33.655
 31
0.0
  0
ARC
  8
1
  6
CONTINUOUS
 10
286.408
 20
33.733333
 30
0.0
 40
0.218333
 50
198.238736
 51
341.761264
  0
ARC
  8
1
  6
CONTINUOUS
 10
286.408
 20
33.733333
 30
0.0
 40
0.228333
 50
200.063764
 51
339.936236
  0
LINE
  8
1
  6
CONTINUOUS
 10
286.615
 20
33.665
 30
0.0
 11
286.666
 21
33.665
 31
0.0
  0
LINE
  8
1
  6
CONTINUOUS
 10
286.622
 20
33.655
 30
0.0
 11
286.674
 21
33.655
 31
0.0
  0
LINE
  8
0
  6
BYBLOCK
 62
     0
 10
286.067192
 20
34.221551
 30
0.0
 11
286.067192
 21
34.669811
 31
0.0
  0
LINE
  8
0
  6
BYBLOCK
 62
     0
 10
286.748
 20
34.2215
 30
0.0
 11
286.748
 21
34.669811
 31
0.0
  0
LINE
  8
0
  6
BYBLOCK
 62
     0
 10
286.067192
 20
34.619811
 30
0.0
 11
286.007192
 21
34.619811
 31
0.0
  0
LINE
  8
0
  6
BYBLOCK
 62
     0
 10
286.748
 20
34.619811
 30
0.0
 11
286.808
 21
34.619811
 31
0.0
  0
LINE
  8
0
  6
BYBLOCK
 62
     0
 10
286.037192
 20
34.589811
 30
0.0
 11
286.097192
 21
34.649811
 31
0.0
  0
LINE
  8
0
  6
BYBLOCK
 62
     0
 10
286.718
 20
34.589811
 30
0.0
 11
286.778
 21
34.649811
 31
0.0
  0
TEXT
  8
0
  6
BYBLOCK
 62
     0
 10
286.282596
 20
34.582311
 30
0.0
 40
0.075
  1
0.70
  7
ROMANC
 72
     4
 11
286.407596
 21
34.619811
 31
0.0
  0
POINT
  8
DEFPOINTS
  6
BYBLOCK
 62
     0
 10
286.067192
 20
34.159051
 30
0.0
  0
POINT
  8
DEFPOINTS
  6
BYBLOCK
 62
     0
 10
286.748
 20
34.159
 30
0.0
  0
POINT
  8
DEFPOINTS
  6
BYBLOCK
 62
     0
 10
286.748
 20
34.619811
 30
0.0
  0
ENDSEC
  0
EOF
