  0
SECTION
  2
HEADER
  9
$ACADVER
  1
AC1009
  9
$INSBASE
 10
0.0
 20
0.0
 30
0.0
  9
$EXTMIN
 10
281.396000
 20
29.897000
 30
-2147483.648000
  9
$EXTMAX
 10
291.896000
 20
44.747000
 30
0.000000
  9
$LIMMIN
 10
280.396000
 20
28.897000
  9
$LIMMAX
 10
292.896000
 20
43.747000
  9
$ORTHOMODE
 70
     0
  9
$REGENMODE
 70
     1
  9
$FILLMODE
 70
     1
  9
$QTEXTMODE
 70
     0
  9
$MIRRTEXT
 70
     1
  9
$DRAGMODE
 70
     2
  9
$LTSCALE
 40
1.0
  9
$OSMODE
 70
     0
  9
$ATTMODE
 70
     1
  9
$TEXTSIZE
 40
0.2
  9
$TRACEWID
 40
0.05
  9
$TEXTSTYLE
  7
STANDARD
  9
$CLAYER
  8
0
  9
$CELTYPE
  6
BYLAYER
  9
$CECOLOR
 62
   256
  9
$DIMSCALE
 40
1.0
  9
$DIMASZ
 40
0.18
  9
$DIMEXO
 40
0.0625
  9
$DIMDLI
 40
0.38
  9
$DIMRND
 40
0.0
  9
$DIMDLE
 40
0.0
  9
$DIMEXE
 40
0.18
  9
$DIMTP
 40
0.0
  9
$DIMTM
 40
0.0
  9
$DIMTXT
 40
0.18
  9
$DIMCEN
 40
0.09
  9
$DIMTSZ
 40
0.0
  9
$DIMTOL
 70
     0
  9
$DIMLIM
 70
     0
  9
$DIMTIH
 70
     1
  9
$DIMTOH
 70
     1
  9
$DIMSE1
 70
     0
  9
$DIMSE2
 70
     0
  9
$DIMTAD
 70
     0
  9
$DIMZIN
 70
     0
  9
$DIMBLK
  1

  9
$DIMASO
 70
     1
  9
$DIMSHO
 70
     1
  9
$DIMPOST
  1

  9
$DIMAPOST
  1

  9
$DIMALT
 70
     0
  9
$DIMALTD
 70
     2
  9
$DIMALTF
 40
25.4
  9
$DIMLFAC
 40
1.0
  9
$DIMTOFL
 70
     0
  9
$DIMTVP
 40
0.0
  9
$DIMTIX
 70
     0
  9
$DIMSOXD
 70
     0
  9
$DIMSAH
 70
     0
  9
$DIMBLK1
  1

  9
$DIMBLK2
  1

  9
$DIMSTYLE
  2
*UNNAMED
  9
$DIMCLRD
 70
     0
  9
$DIMCLRE
 70
     0
  9
$DIMCLRT
 70
     0
  9
$DIMTFAC
 40
1.0
  9
$DIMGAP
 40
0.09
  9
$LUNITS
 70
     2
  9
$LUPREC
 70
     4
  9
$AXISMODE
 70
     0
  9
$AXISUNIT
 10
0.0
 20
0.0
  9
$SKETCHINC
 40
0.1
  9
$FILLETRAD
 40
0.0
  9
$AUNITS
 70
     0
  9
$AUPREC
 70
     0
  9
$MENU
  1
acad
  9
$ELEVATION
 40
0.0
  9
$PELEVATION
 40
0.0
  9
$THICKNESS
 40
0.0
  9
$LIMCHECK
 70
     0
  9
$BLIPMODE
 70
     1
  9
$CHAMFERA
 40
0.0
  9
$CHAMFERB
 40
0.0
  9
$SKPOLY
 70
     0
  9
$TDCREATE
 40
2448315.373408102
  9
$TDUPDATE
 40
2448315.373408102
  9
$TDINDWG
 40
0.0000000000
  9
$TDUSRTIMER
 40
0.0000000000
  9
$USRTIMER
 70
     1
  9
$ANGBASE
 50
0.0
  9
$ANGDIR
 70
     0
  9
$PDMODE
 70
     0
  9
$PDSIZE
 40
0.0
  9
$PLINEWID
 40
0.0
  9
$COORDS
 70
     0
  9
$SPLFRAME
 70
     0
  9
$SPLINETYPE
 70
     6
  9
$SPLINESEGS
 70
     8
  9
$ATTDIA
 70
     0
  9
$ATTREQ
 70
     1
  9
$HANDLING
 70
     0
  9
$HANDSEED
  5
0
  9
$SURFTAB1
 70
     6
  9
$SURFTAB2
 70
     6
  9
$SURFTYPE
 70
     6
  9
$SURFU
 70
     6
  9
$SURFV
 70
     6
  9
$UCSNAME
  2

  9
$UCSORG
 10
0.0
 20
0.0
 30
0.0
  9
$UCSXDIR
 10
1.0
 20
0.0
 30
0.0
  9
$UCSYDIR
 10
0.0
 20
1.0
 30
0.0
  9
$PUCSNAME
  2

  9
$PUCSORG
 10
0.0
 20
0.0
 30
0.0
  9
$PUCSXDIR
 10
1.0
 20
0.0
 30
0.0
  9
$PUCSYDIR
 10
0.0
 20
1.0
 30
0.0
  9
$USERI1
 70
     0
  9
$USERI2
 70
     0
  9
$USERI3
 70
     0
  9
$USERI4
 70
     0
  9
$USERI5
 70
     0
  9
$USERR1
 40
0.0
  9
$USERR2
 40
0.0
  9
$USERR3
 40
0.0
  9
$USERR4
 40
0.0
  9
$USERR5
 40
0.0
  9
$WORLDVIEW
 70
     1
  9
$SHADEDGE
 70
     3
  9
$SHADEDIF
 70
    70
  9
$TILEMODE
 70
     1
  9
$MAXACTVP
 70
    16
  9
$PINSBASE
 10
0.0
 20
0.0
 30
0.0
  9
$PLIMCHECK
 70
     0
  9
$PEXTMIN
 10
1.000000E+20
 20
1.000000E+20
 30
1.000000E+20
  9
$PEXTMAX
 10
-1.000000E+20
 20
-1.000000E+20
 30
-1.000000E+20
  9
$PLIMMIN
 10
0.0
 20
0.0
  9
$PLIMMAX
 10
12.0
 20
9.0
  9
$UNITMODE
 70
     0
  9
$VISRETAIN
 70
     0
  0
ENDSEC
  0
SECTION
  2
TABLES
  0
TABLE
  2
LTYPE
 70
    1
  0
LTYPE
  2
CONTINUOUS
 70
    64
3
Solid line
 72
    65
 73
0
 40
0.000000
  0
ENDTAB
  0
TABLE
  2
LAYER
 70
    8
  0
LAYER
  2
0
 70
    64
 62
7
  6
CONTINUOUS
  0
LAYER
  2
1
 70
    64
 62
7
  6
CONTINUOUS
  0
LAYER
  2
7
 70
    64
 62
7
  6
CONTINUOUS
  0
LAYER
  2
8
 70
    64
 62
7
  6
CONTINUOUS
  0
LAYER
  2
9
 70
    64
 62
7
  6
CONTINUOUS
  0
LAYER
  2
22
 70
    64
 62
7
  6
CONTINUOUS
  0
LAYER
  2
25
 70
    64
 62
7
  6
CONTINUOUS
  0
LAYER
  2
0
 70
    64
 62
7
  6
CONTINUOUS
  0
ENDTAB
  0
TABLE
  2
STYLE
 70
    1
  0
STYLE
  2
ROMANC
70
     0
 40
0.0
 41
1.0
 50
0.0
 71
     0
 42
0.2
  3
ROMANC
  4

  0
ENDTAB
  0
ENDSEC
  0
SECTION
  2
BLOCKS
  0
ENDSEC
  0
SECTION
  2
ENTITIES
  0
TEXT
  8
0
  6
CONTINUOUS
 40
0.100000
 10
286.909000
 20
41.324000
  1
2
  7
ROMANC
  0
TEXT
  8
0
  6
CONTINUOUS
 40
0.300000
 10
283.926000
 20
41.768000
  1
ESCALA  1:50
  7
ROMANC
  0
POLYLINE
  8
0
  6
CONTINUOUS
 66
     1
 70
     1
  0
VERTEX
  8
0
  6
CONTINUOUS
 10
281.396000
 20
44.747000
  0
VERTEX
  8
0
  6
CONTINUOUS
 10
291.896000
 20
44.747000
  0
VERTEX
  8
0
  6
CONTINUOUS
 10
291.896000
 20
29.897000
  0
VERTEX
  8
0
  6
CONTINUOUS
 10
281.396000
 20
29.897000
  0
SEQEND
  8
0
  0
POLYLINE
  8
1
  6
CONTINUOUS
 66
     1
 70
     0
  0
VERTEX
  8
1
  6
CONTINUOUS
 10
287.335000
 20
34.693000
 42
0.041352
  0
VERTEX
  8
1
  6
CONTINUOUS
 10
287.324544
 20
34.817584
 42
0.040147
  0
VERTEX
  8
1
  6
CONTINUOUS
 10
287.294111
 20
34.938878
 42
0.039360
  0
VERTEX
  8
1
  6
CONTINUOUS
 10
287.242854
 20
35.057940
 42
0.036506
  0
VERTEX
  8
1
  6
CONTINUOUS
 10
287.174230
 20
35.168000
 42
0.035410
  0
VERTEX
  8
1
  6
CONTINUOUS
 10
287.085552
 20
35.272789
 42
0.032300
  0
VERTEX
  8
1
  6
CONTINUOUS
 10
286.983528
 20
35.364751
 42
0.031328
  0
VERTEX
  8
1
  6
CONTINUOUS
 10
286.863824
 20
35.447689
 42
0.028867
  0
VERTEX
  8
1
  6
CONTINUOUS
 10
286.735000
 20
35.515724
 42
0.028198
  0
VERTEX
  8
1
  6
CONTINUOUS
 10
286.592908
 20
35.571103
 42
0.026697
  0
VERTEX
  8
1
  6
CONTINUOUS
 10
286.445583
 20
35.610630
 42
0.026365
  0
VERTEX
  8
1
  6
CONTINUOUS
 10
286.291141
 20
35.634915
 42
0.025868
  0
VERTEX
  8
1
  6
CONTINUOUS
 10
286.135000
 20
35.643000
 42
0.025868
  0
VERTEX
  8
1
  6
CONTINUOUS
 10
285.978859
 20
35.634915
 42
0.026365
  0
VERTEX
  8
1
  6
CONTINUOUS
 10
285.824417
 20
35.610630
 42
0.026697
  0
VERTEX
  8
1
  6
CONTINUOUS
 10
285.677092
 20
35.571103
 42
0.028198
  0
VERTEX
  8
1
  6
CONTINUOUS
 10
285.535000
 20
35.515724
 42
0.028867
  0
VERTEX
  8
1
  6
CONTINUOUS
 10
285.406176
 20
35.447689
 42
0.031328
  0
VERTEX
  8
1
  6
CONTINUOUS
 10
285.286472
 20
35.364751
 42
0.032300
  0
VERTEX
  8
1
  6
CONTINUOUS
 10
285.184448
 20
35.272789
 42
0.035410
  0
VERTEX
  8
1
  6
CONTINUOUS
 10
285.095770
 20
35.168000
 42
0.036506
  0
VERTEX
  8
1
  6
CONTINUOUS
 10
285.027146
 20
35.057940
 42
0.039360
  0
VERTEX
  8
1
  6
CONTINUOUS
 10
284.975889
 20
34.938878
 42
0.040147
  0
VERTEX
  8
1
  6
CONTINUOUS
 10
284.945456
 20
34.817584
 42
0.041352
  0
VERTEX
  8
1
  6
CONTINUOUS
 10
284.935000
 20
34.693000
  0
SEQEND
  8
0
  0
LINE
  8
1
  6
CONTINUOUS
 10
284.935000
 20
34.693000
 11
284.935000
 21
33.793000
  0
TEXT
  8
0
  6
CONTINUOUS
 40
0.300000
 10
283.922000
 20
40.529000
  1
P = 77 dm
  7
ROMANC
  0
TEXT
  8
0
  6
CONTINUOUS
 40
0.300000
 10
283.945000
 20
41.099000
  1
S = 399 dm
  7
ROMANC
  0
TEXT
  8
0
  6
CONTINUOUS
 40
0.300000
 10
283.926000
 20
42.381000
  1
TIPUS   NT399
  7
ROMANC
  0
LINE
  8
1
  6
CONTINUOUS
 10
284.935000
 20
33.793000
 11
285.935000
 21
33.793000
  0
ARC
  8
1
  6
CONTINUOUS
 10
286.135000
 20
33.851333
 40
0.208333
 50
196.260206
 51
343.739797
  0
LINE
  8
1
  6
CONTINUOUS
 10
286.335000
 20
33.793000
 11
287.335000
 21
33.793000
  0
TEXT
  8
1
  6
CONTINUOUS
 40
0.075000
 10
285.325000
 20
33.422000
  1
1.00
  7
ROMANC
  0
LINE
  8
1
  6
CONTINUOUS
 10
285.287000
 20
33.459000
 11
284.935000
 21
33.459000
  0
LINE
  8
1
  6
CONTINUOUS
 10
285.582000
 20
33.459000
 11
285.935000
 21
33.459000
  0
LINE
  8
1
  6
CONTINUOUS
 10
284.898000
 20
33.440000
 11
284.972000
 21
33.478000
  0
LINE
  8
1
  6
CONTINUOUS
 10
285.972000
 20
33.478000
 11
285.898000
 21
33.440000
  0
LINE
  8
1
  6
CONTINUOUS
 10
284.935000
 20
33.755000
 11
284.935000
 21
33.421000
  0
LINE
  8
1
  6
CONTINUOUS
 10
285.935000
 20
33.755000
 11
285.935000
 21
33.421000
  0
TEXT
  8
1
  6
CONTINUOUS
 40
0.075000
 10
286.013000
 20
33.422000
  1
0.40
  7
ROMANC
  0
LINE
  8
1
  6
CONTINUOUS
 10
285.785000
 20
33.459000
 11
285.935000
 21
33.459000
  0
LINE
  8
1
  6
CONTINUOUS
 10
286.485000
 20
33.459000
 11
286.335000
 21
33.459000
  0
LINE
  8
1
  6
CONTINUOUS
 10
285.972000
 20
33.478000
 11
285.898000
 21
33.440000
  0
LINE
  8
1
  6
CONTINUOUS
 10
286.298000
 20
33.440000
 11
286.372000
 21
33.478000
  0
LINE
  8
1
  6
CONTINUOUS
 10
286.335000
 20
33.755000
 11
286.335000
 21
33.421000
  0
TEXT
  8
1
  6
CONTINUOUS
 40
0.075000
 10
286.725000
 20
33.422000
  1
1.00
  7
ROMANC
  0
LINE
  8
1
  6
CONTINUOUS
 10
286.687000
 20
33.459000
 11
286.335000
 21
33.459000
  0
LINE
  8
1
  6
CONTINUOUS
 10
286.982000
 20
33.459000
 11
287.335000
 21
33.459000
  0
LINE
  8
1
  6
CONTINUOUS
 10
286.298000
 20
33.440000
 11
286.372000
 21
33.478000
  0
LINE
  8
1
  6
CONTINUOUS
 10
287.372000
 20
33.478000
 11
287.298000
 21
33.440000
  0
LINE
  8
1
  6
CONTINUOUS
 10
287.335000
 20
33.755000
 11
287.335000
 21
33.421000
  0
TEXT
  8
1
  6
CONTINUOUS
 40
0.075000
 10
286.013000
 20
33.232000
  1
2.40
  7
ROMANC
  0
LINE
  8
1
  6
CONTINUOUS
 10
285.975000
 20
33.269000
 11
284.935000
 21
33.269000
  0
LINE
  8
1
  6
CONTINUOUS
 10
286.294000
 20
33.269000
 11
287.335000
 21
33.269000
  0
LINE
  8
1
  6
CONTINUOUS
 10
284.898000
 20
33.250000
 11
284.972000
 21
33.288000
  0
LINE
  8
1
  6
CONTINUOUS
 10
287.372000
 20
33.288000
 11
287.298000
 21
33.250000
  0
LINE
  8
1
  6
CONTINUOUS
 10
284.935000
 20
33.755000
 11
284.935000
 21
33.231000
  0
LINE
  8
1
  6
CONTINUOUS
 10
287.335000
 20
33.755000
 11
287.335000
 21
33.231000
  0
LINE
  8
1
  6
CONTINUOUS
 10
287.335000
 20
33.793000
 11
287.335000
 21
34.693000
  0
TEXT
  8
1
  6
CONTINUOUS
 40
0.075000
 10
287.630000
 20
33.237000
  1
0.15
 50
90.000000
  7
ROMANC
  0
LINE
  8
1
  6
CONTINUOUS
 10
287.593000
 20
33.570000
 11
287.593000
 21
33.643000
  0
LINE
  8
1
  6
CONTINUOUS
 10
287.593000
 20
33.943000
 11
287.593000
 21
33.793000
  0
LINE
  8
1
  6
CONTINUOUS
 10
287.574000
 20
33.680000
 11
287.612000
 21
33.606000
  0
LINE
  8
1
  6
CONTINUOUS
 10
287.612000
 20
33.756000
 11
287.574000
 21
33.830000
  0
LINE
  8
1
  6
CONTINUOUS
 10
286.173000
 20
33.643000
 11
287.631000
 21
33.643000
  0
LINE
  8
1
  6
CONTINUOUS
 10
287.373000
 20
33.793000
 11
287.631000
 21
33.793000
  0
TEXT
  8
1
  6
CONTINUOUS
 40
0.075000
 10
287.774000
 20
34.124000
  1
0.90
 50
90.000000
  7
ROMANC
  0
LINE
  8
1
  6
CONTINUOUS
 10
287.737000
 20
34.086000
 11
287.737000
 21
33.793000
  0
LINE
  8
1
  6
CONTINUOUS
 10
287.737000
 20
34.398000
 11
287.737000
 21
34.693000
  0
LINE
  8
1
  6
CONTINUOUS
 10
287.756000
 20
33.756000
 11
287.718000
 21
33.830000
  0
LINE
  8
1
  6
CONTINUOUS
 10
287.718000
 20
34.730000
 11
287.756000
 21
34.656000
  0
LINE
  8
1
  6
CONTINUOUS
 10
287.373000
 20
33.793000
 11
287.775000
 21
33.793000
  0
LINE
  8
1
  6
CONTINUOUS
 10
287.373000
 20
34.693000
 11
287.775000
 21
34.693000
  0
TEXT
  8
1
  6
CONTINUOUS
 40
0.075000
 10
287.774000
 20
35.049000
  1
0.95
 50
90.000000
  7
ROMANC
  0
LINE
  8
1
  6
CONTINUOUS
 10
287.737000
 20
35.011000
 11
287.737000
 21
34.693000
  0
LINE
  8
1
  6
CONTINUOUS
 10
287.737000
 20
35.323000
 11
287.737000
 21
35.643000
  0
LINE
  8
1
  6
CONTINUOUS
 10
287.756000
 20
34.656000
 11
287.718000
 21
34.730000
  0
LINE
  8
1
  6
CONTINUOUS
 10
287.718000
 20
35.680000
 11
287.756000
 21
35.606000
  0
LINE
  8
1
  6
CONTINUOUS
 10
286.173000
 20
35.643000
 11
287.775000
 21
35.643000
  0
TEXT
  8
1
  6
CONTINUOUS
 40
0.075000
 10
288.022000
 20
34.524000
  1
2.00
 50
90.000000
  7
ROMANC
  0
LINE
  8
1
  6
CONTINUOUS
 10
287.985000
 20
34.486000
 11
287.985000
 21
33.643000
  0
LINE
  8
1
  6
CONTINUOUS
 10
287.985000
 20
34.798000
 11
287.985000
 21
35.643000
  0
LINE
  8
1
  6
CONTINUOUS
 10
288.004000
 20
33.606000
 11
287.966000
 21
33.680000
  0
LINE
  8
1
  6
CONTINUOUS
 10
287.966000
 20
35.680000
 11
288.004000
 21
35.606000
  0
LINE
  8
1
  6
CONTINUOUS
 10
286.173000
 20
33.643000
 11
288.023000
 21
33.643000
  0
LINE
  8
1
  6
CONTINUOUS
 10
286.173000
 20
35.643000
 11
288.023000
 21
35.643000
  0
LINE
  8
1
  6
CONTINUOUS
 10
284.925000
 20
34.693000
 11
284.925000
 21
33.783000
  0
LINE
  8
1
  6
CONTINUOUS
 10
284.915000
 20
34.693000
 11
284.915000
 21
33.773000
  0
POLYLINE
  8
1
  6
CONTINUOUS
 66
     1
 70
     0
  0
VERTEX
  8
1
  6
CONTINUOUS
 10
287.345000
 20
34.693000
 42
0.041262
  0
VERTEX
  8
1
  6
CONTINUOUS
 10
287.334459
 20
34.818888
 42
0.040073
  0
VERTEX
  8
1
  6
CONTINUOUS
 10
287.303770
 20
34.941466
 42
0.039296
  0
VERTEX
  8
1
  6
CONTINUOUS
 10
287.252094
 20
35.061767
 42
0.036476
  0
VERTEX
  8
1
  6
CONTINUOUS
 10
287.182891
 20
35.173000
 42
0.035392
  0
VERTEX
  8
1
  6
CONTINUOUS
 10
287.093487
 20
35.278878
 42
0.032312
  0
VERTEX
  8
1
  6
CONTINUOUS
 10
286.990599
 20
35.371823
 42
0.031348
  0
VERTEX
  8
1
  6
CONTINUOUS
 10
286.869912
 20
35.455624
 42
0.028905
  0
VERTEX
  8
1
  6
CONTINUOUS
 10
286.740000
 20
35.524384
 42
0.028241
  0
VERTEX
  8
1
  6
CONTINUOUS
 10
286.596734
 20
35.580343
 42
0.026749
  0
VERTEX
  8
1
  6
CONTINUOUS
 10
286.448171
 20
35.620289
 42
0.026419
  0
VERTEX
  8
1
  6
CONTINUOUS
 10
286.292446
 20
35.644829
 42
0.025924
  0
VERTEX
  8
1
  6
CONTINUOUS
 10
286.135000
 20
35.653000
 42
0.025924
  0
VERTEX
  8
1
  6
CONTINUOUS
 10
285.977554
 20
35.644829
 42
0.026419
  0
VERTEX
  8
1
  6
CONTINUOUS
 10
285.821829
 20
35.620289
 42
0.026749
  0
VERTEX
  8
1
  6
CONTINUOUS
 10
285.673266
 20
35.580343
 42
0.028241
  0
VERTEX
  8
1
  6
CONTINUOUS
 10
285.530000
 20
35.524384
 42
0.028905
  0
VERTEX
  8
1
  6
CONTINUOUS
 10
285.400088
 20
35.455624
 42
0.031348
  0
VERTEX
  8
1
  6
CONTINUOUS
 10
285.279401
 20
35.371823
 42
0.032312
  0
VERTEX
  8
1
  6
CONTINUOUS
 10
285.176513
 20
35.278878
 42
0.035392
  0
VERTEX
  8
1
  6
CONTINUOUS
 10
285.087109
 20
35.173000
 42
0.036476
  0
VERTEX
  8
1
  6
CONTINUOUS
 10
285.017906
 20
35.061767
 42
0.039296
  0
VERTEX
  8
1
  6
CONTINUOUS
 10
284.966230
 20
34.941466
 42
0.040073
  0
VERTEX
  8
1
  6
CONTINUOUS
 10
284.935541
 20
34.818888
 42
0.041262
  0
VERTEX
  8
1
  6
CONTINUOUS
 10
284.925000
 20
34.693000
  0
SEQEND
  8
0
  0
POLYLINE
  8
1
  6
CONTINUOUS
 66
     1
 70
     0
  0
VERTEX
  8
1
  6
CONTINUOUS
 10
287.355000
 20
34.693000
 42
0.041174
  0
VERTEX
  8
1
  6
CONTINUOUS
 10
287.344373
 20
34.820193
 42
0.040001
  0
VERTEX
  8
1
  6
CONTINUOUS
 10
287.313430
 20
34.944054
 42
0.039234
  0
VERTEX
  8
1
  6
CONTINUOUS
 10
287.261334
 20
35.065593
 42
0.036447
  0
VERTEX
  8
1
  6
CONTINUOUS
 10
287.191551
 20
35.178000
 42
0.035375
  0
VERTEX
  8
1
  6
CONTINUOUS
 10
287.101422
 20
35.284967
 42
0.032324
  0
VERTEX
  8
1
  6
CONTINUOUS
 10
286.997670
 20
35.378894
 42
0.031368
  0
VERTEX
  8
1
  6
CONTINUOUS
 10
286.876000
 20
35.463560
 42
0.028943
  0
VERTEX
  8
1
  6
CONTINUOUS
 10
286.745000
 20
35.533045
 42
0.028283
  0
VERTEX
  8
1
  6
CONTINUOUS
 10
286.600560
 20
35.589583
 42
0.026800
  0
VERTEX
  8
1
  6
CONTINUOUS
 10
286.450759
 20
35.629948
 42
0.026472
  0
VERTEX
  8
1
  6
CONTINUOUS
 10
286.293751
 20
35.654743
 42
0.025980
  0
VERTEX
  8
1
  6
CONTINUOUS
 10
286.135000
 20
35.663000
 42
0.025980
  0
VERTEX
  8
1
  6
CONTINUOUS
 10
285.976249
 20
35.654743
 42
0.026472
  0
VERTEX
  8
1
  6
CONTINUOUS
 10
285.819241
 20
35.629948
 42
0.026800
  0
VERTEX
  8
1
  6
CONTINUOUS
 10
285.669440
 20
35.589583
 42
0.028283
  0
VERTEX
  8
1
  6
CONTINUOUS
 10
285.525000
 20
35.533045
 42
0.028943
  0
VERTEX
  8
1
  6
CONTINUOUS
 10
285.394000
 20
35.463560
 42
0.031368
  0
VERTEX
  8
1
  6
CONTINUOUS
 10
285.272330
 20
35.378894
 42
0.032324
  0
VERTEX
  8
1
  6
CONTINUOUS
 10
285.168578
 20
35.284967
 42
0.035375
  0
VERTEX
  8
1
  6
CONTINUOUS
 10
285.078449
 20
35.178000
 42
0.036447
  0
VERTEX
  8
1
  6
CONTINUOUS
 10
285.008666
 20
35.065593
 42
0.039234
  0
VERTEX
  8
1
  6
CONTINUOUS
 10
284.956570
 20
34.944054
 42
0.040001
  0
VERTEX
  8
1
  6
CONTINUOUS
 10
284.925627
 20
34.820193
 42
0.041174
  0
VERTEX
  8
1
  6
CONTINUOUS
 10
284.915000
 20
34.693000
  0
SEQEND
  8
0
  0
LINE
  8
1
  6
CONTINUOUS
 10
284.925000
 20
33.783000
 11
285.928000
 21
33.783000
  0
LINE
  8
1
  6
CONTINUOUS
 10
284.915000
 20
33.773000
 11
285.921000
 21
33.773000
  0
ARC
  8
1
  6
CONTINUOUS
 10
286.135000
 20
33.851333
 40
0.218333
 50
198.238736
 51
341.761264
  0
ARC
  8
1
  6
CONTINUOUS
 10
286.135000
 20
33.851333
 40
0.228333
 50
200.063764
 51
339.936236
  0
LINE
  8
1
  6
CONTINUOUS
 10
286.342000
 20
33.783000
 11
287.345000
 21
33.783000
  0
LINE
  8
1
  6
CONTINUOUS
 10
286.349000
 20
33.773000
 11
287.355000
 21
33.773000
  0
LINE
  8
1
  6
CONTINUOUS
 10
287.345000
 20
33.783000
 11
287.345000
 21
34.693000
  0
LINE
  8
1
  6
CONTINUOUS
 10
287.355000
 20
33.773000
 11
287.355000
 21
34.693000
  0
ENDSEC
  0
EOF
