  0
SECTION
  2
HEADER
  9
$ACADVER
  1
AC1009
  9
$INSBASE
 10
105.464027
 20
-4.528761
 30
0.0
  9
$EXTMIN
 10
281.395795
 20
29.897444
 30
0.0
  9
$EXTMAX
 10
291.895795
 20
44.747444
 30
0.0
  9
$LIMMIN
 10
0.0
 20
0.0
  9
$LIMMAX
 10
410.0
 20
287.0
  9
$ORTHOMODE
 70
     0
  9
$REGENMODE
 70
     1
  9
$FILLMODE
 70
     1
  9
$QTEXTMODE
 70
     0
  9
$MIRRTEXT
 70
     1
  9
$DRAGMODE
 70
     2
  9
$LTSCALE
 40
25.0
  9
$OSMODE
 70
    32
  9
$ATTMODE
 70
     1
  9
$TEXTSIZE
 40
0.1
  9
$TRACEWID
 40
1.0
  9
$TEXTSTYLE
  7
ROMANC
  9
$CLAYER
  8
0
  9
$CELTYPE
  6
BYLAYER
  9
$CECOLOR
 62
   256
  9
$DIMSCALE
 40
1.5
  9
$DIMASZ
 40
0.1
  9
$DIMEXO
 40
0.01
  9
$DIMDLI
 40
7.0
  9
$DIMRND
 40
0.0
  9
$DIMDLE
 40
0.0
  9
$DIMEXE
 40
0.01
  9
$DIMTP
 40
0.0
  9
$DIMTM
 40
0.0
  9
$DIMTXT
 40
0.05
  9
$DIMCEN
 40
0.1
  9
$DIMTSZ
 40
0.0
  9
$DIMTOL
 70
     0
  9
$DIMLIM
 70
     0
  9
$DIMTIH
 70
     0
  9
$DIMTOH
 70
     0
  9
$DIMSE1
 70
     0
  9
$DIMSE2
 70
     0
  9
$DIMTAD
 70
     1
  9
$DIMZIN
 70
     0
  9
$DIMBLK
  1

  9
$DIMASO
 70
     1
  9
$DIMSHO
 70
     0
  9
$DIMPOST
  1

  9
$DIMAPOST
  1

  9
$DIMALT
 70
     0
  9
$DIMALTD
 70
     2
  9
$DIMALTF
 40
25.4
  9
$DIMLFAC
 40
1.0
  9
$DIMTOFL
 70
     1
  9
$DIMTVP
 40
0.0
  9
$DIMTIX
 70
     1
  9
$DIMSOXD
 70
     0
  9
$DIMSAH
 70
     0
  9
$DIMBLK1
  1

  9
$DIMBLK2
  1

  9
$DIMSTYLE
  2
*UNNAMED
  9
$DIMCLRD
 70
     0
  9
$DIMCLRE
 70
     0
  9
$DIMCLRT
 70
     0
  9
$DIMTFAC
 40
70.0
  9
$DIMGAP
 40
0.09
  9
$LUNITS
 70
     2
  9
$LUPREC
 70
     2
  9
$SKETCHINC
 40
1.0
  9
$FILLETRAD
 40
0.0
  9
$AUNITS
 70
     0
  9
$AUPREC
 70
     0
  9
$MENU
  1
acad
  9
$ELEVATION
 40
0.0
  9
$PELEVATION
 40
0.0
  9
$THICKNESS
 40
0.0
  9
$LIMCHECK
 70
     0
  9
$BLIPMODE
 70
     0
  9
$CHAMFERA
 40
0.0
  9
$CHAMFERB
 40
0.0
  9
$SKPOLY
 70
     0
  9
$TDCREATE
 40
2450305.554557986
  9
$TDUPDATE
 40
2450393.521574768
  9
$TDINDWG
 40
0.0117530093
  9
$TDUSRTIMER
 40
0.0117530093
  9
$USRTIMER
 70
     1
  9
$ANGBASE
 50
0.0
  9
$ANGDIR
 70
     0
  9
$PDMODE
 70
     0
  9
$PDSIZE
 40
0.0
  9
$PLINEWID
 40
0.0
  9
$COORDS
 70
     2
  9
$SPLFRAME
 70
     0
  9
$SPLINETYPE
 70
     6
  9
$SPLINESEGS
 70
     8
  9
$ATTDIA
 70
     0
  9
$ATTREQ
 70
     1
  9
$HANDLING
 70
     0
  9
$HANDSEED
  5
0
  9
$SURFTAB1
 70
     6
  9
$SURFTAB2
 70
     6
  9
$SURFTYPE
 70
     6
  9
$SURFU
 70
     6
  9
$SURFV
 70
     6
  9
$UCSNAME
  2

  9
$UCSORG
 10
0.0
 20
0.0
 30
0.0
  9
$UCSXDIR
 10
1.0
 20
0.0
 30
0.0
  9
$UCSYDIR
 10
0.0
 20
1.0
 30
0.0
  9
$PUCSNAME
  2

  9
$PUCSORG
 10
0.0
 20
0.0
 30
0.0
  9
$PUCSXDIR
 10
1.0
 20
0.0
 30
0.0
  9
$PUCSYDIR
 10
0.0
 20
1.0
 30
0.0
  9
$USERI1
 70
     0
  9
$USERI2
 70
     0
  9
$USERI3
 70
     0
  9
$USERI4
 70
     0
  9
$USERI5
 70
     0
  9
$USERR1
 40
0.0
  9
$USERR2
 40
0.0
  9
$USERR3
 40
0.0
  9
$USERR4
 40
0.0
  9
$USERR5
 40
0.0
  9
$WORLDVIEW
 70
     1
  9
$SHADEDGE
 70
     3
  9
$SHADEDIF
 70
    70
  9
$TILEMODE
 70
     1
  9
$MAXACTVP
 70
    16
  9
$PINSBASE
 10
0.0
 20
0.0
 30
0.0
  9
$PLIMCHECK
 70
     0
  9
$PEXTMIN
 10
1.000000E+20
 20
1.000000E+20
 30
1.000000E+20
  9
$PEXTMAX
 10
-1.000000E+20
 20
-1.000000E+20
 30
-1.000000E+20
  9
$PLIMMIN
 10
0.0
 20
0.0
  9
$PLIMMAX
 10
12.0
 20
9.0
  9
$UNITMODE
 70
     0
  9
$VISRETAIN
 70
     0
  9
$PLINEGEN
 70
     0
  9
$PSLTSCALE
 70
     0
  9
$TREEDEPTH
 70
  3020
  9
$DWGCODEPAGE
  3
iso8859-1
  0
ENDSEC
  0
SECTION
  2
TABLES
  0
TABLE
  2
VPORT
 70
     2
  0
VPORT
  2
*ACTIVE
 70
     0
 10
0.0
 20
0.0
 11
1.0
 21
1.0
 12
293.570876
 22
37.335787
 13
0.0
 23
0.0
 14
1.0
 24
1.0
 15
10.0
 25
10.0
 16
0.0
 26
0.0
 36
1.0
 17
0.0
 27
0.0
 37
0.0
 40
14.876687
 41
1.6368
 42
50.0
 43
0.0
 44
0.0
 50
0.0
 51
0.0
 71
     0
 72
   100
 73
     1
 74
     0
 75
     0
 76
     0
 77
     0
 78
     1
  0
ENDTAB
  0
TABLE
  2
LTYPE
 70
     1
  0
LTYPE
  2
CONTINUOUS
 70
    64
  3
Solid line
 72
    65
 73
     0
 40
0.0
  0
ENDTAB
  0
TABLE
  2
LAYER
 70
     3
  0
LAYER
  2
0
 70
    64
 62
     7
  6
CONTINUOUS
  0
LAYER
  2
MESURA
 70
     0
 62
     7
  6
CONTINUOUS
  0
LAYER
  2
DEFPOINTS
 70
    64
 62
     7
  6
CONTINUOUS
  0
ENDTAB
  0
TABLE
  2
STYLE
 70
     2
  0
STYLE
  2
STANDARD
 70
    64
 40
0.0
 41
1.0
 50
0.0
 71
     0
 42
0.1
  3
txt
  4

  0
STYLE
  2
ROMANC
 70
    64
 40
0.0
 41
1.0
 50
0.0
 71
     0
 42
0.1
  3
romanc
  4

  0
ENDTAB
  0
TABLE
  2
VIEW
 70
     0
  0
ENDTAB
  0
TABLE
  2
UCS
 70
     0
  0
ENDTAB
  0
TABLE
  2
APPID
 70
     1
  0
APPID
  2
ACAD
 70
    64
  0
ENDTAB
  0
TABLE
  2
DIMSTYLE
 70
     1
  0
DIMSTYLE
  2
SILVIA
 70
     0
  3

  4

  5

  6

  7

 40
1.5
 41
0.1
 42
0.01
 43
7.0
 44
0.01
 45
0.0
 46
0.0
 47
0.0
 48
0.0
140
0.05
141
0.1
142
0.0
143
25.4
144
1.0
145
0.0
146
70.0
147
0.09
 71
     0
 72
     0
 73
     0
 74
     0
 75
     0
 76
     0
 77
     1
 78
     0
170
     0
171
     2
172
     1
173
     0
174
     1
175
     0
176
     0
177
     0
178
     0
  0
ENDTAB
  0
ENDSEC
  0
SECTION
  2
BLOCKS
  0
BLOCK
  8
0
  2
*D6
 70
    65
 10
0.0
 20
0.0
 30
0.0
  3
*D
  0
LINE
  8
0
  6
BYBLOCK
 62
     0
 10
285.083652
 20
34.362085
 30
0.0
 11
285.083652
 21
32.651028
 31
0.0
  0
LINE
  8
0
  6
BYBLOCK
 62
     0
 10
287.233652
 20
34.362085
 30
0.0
 11
287.233652
 21
32.651028
 31
0.0
  0
LINE
  8
0
  6
BYBLOCK
 62
     0
 10
285.233652
 20
32.666028
 30
0.0
 11
287.083652
 21
32.666028
 31
0.0
  0
SOLID
  8
0
  6
BYBLOCK
 62
     0
 10
285.233652
 20
32.691028
 30
0.0
 11
285.233652
 21
32.641028
 31
0.0
 12
285.083652
 22
32.666028
 32
0.0
 13
285.083652
 23
32.666028
 33
0.0
  0
SOLID
  8
0
  6
BYBLOCK
 62
     0
 10
287.083652
 20
32.691028
 30
0.0
 11
287.083652
 21
32.641028
 31
0.0
 12
287.233652
 22
32.666028
 32
0.0
 13
287.233652
 23
32.666028
 33
0.0
  0
TEXT
  8
0
  6
BYBLOCK
 62
     0
 10
286.033652
 20
32.703528
 30
0.0
 40
0.075
  1
2.15
  7
ROMANC
 72
     1
 11
286.158652
 21
32.741028
 31
0.0
 73
     2
  0
POINT
  8
DEFPOINTS
  6
BYBLOCK
 62
     0
 10
285.083652
 20
34.377085
 30
0.0
  0
POINT
  8
DEFPOINTS
  6
BYBLOCK
 62
     0
 10
287.233652
 20
34.377085
 30
0.0
  0
POINT
  8
DEFPOINTS
  6
BYBLOCK
 62
     0
 10
287.233652
 20
32.666028
 30
0.0
  0
ENDBLK
  8
0
  0
BLOCK
  8
0
  2
*D7
 70
    65
 10
0.0
 20
0.0
 30
0.0
  3
*D
  0
LINE
  8
0
  6
BYBLOCK
 62
     0
 10
285.083652
 20
34.362085
 30
0.0
 11
285.083652
 21
33.435263
 31
0.0
  0
LINE
  8
0
  6
BYBLOCK
 62
     0
 10
285.808652
 20
34.362085
 30
0.0
 11
285.808652
 21
33.435263
 31
0.0
  0
LINE
  8
0
  6
BYBLOCK
 62
     0
 10
284.933652
 20
33.450263
 30
0.0
 11
284.783652
 21
33.450263
 31
0.0
  0
LINE
  8
0
  6
BYBLOCK
 62
     0
 10
285.958652
 20
33.450263
 30
0.0
 11
286.108652
 21
33.450263
 31
0.0
  0
SOLID
  8
0
  6
BYBLOCK
 62
     0
 10
284.933652
 20
33.475263
 30
0.0
 11
284.933652
 21
33.425263
 31
0.0
 12
285.083652
 22
33.450263
 32
0.0
 13
285.083652
 23
33.450263
 33
0.0
  0
SOLID
  8
0
  6
BYBLOCK
 62
     0
 10
285.958652
 20
33.475263
 30
0.0
 11
285.958652
 21
33.425263
 31
0.0
 12
285.808652
 22
33.450263
 32
0.0
 13
285.808652
 23
33.450263
 33
0.0
  0
LINE
  8
0
  6
BYBLOCK
 62
     0
 10
285.083652
 20
33.450263
 30
0.0
 11
285.808652
 21
33.450263
 31
0.0
  0
TEXT
  8
0
  6
BYBLOCK
 62
     0
 10
285.321152
 20
33.487763
 30
0.0
 40
0.075
  1
0.73
  7
ROMANC
 72
     1
 11
285.446152
 21
33.525263
 31
0.0
 73
     2
  0
POINT
  8
DEFPOINTS
  6
BYBLOCK
 62
     0
 10
285.083652
 20
34.377085
 30
0.0
  0
POINT
  8
DEFPOINTS
  6
BYBLOCK
 62
     0
 10
285.808652
 20
34.377085
 30
0.0
  0
POINT
  8
DEFPOINTS
  6
BYBLOCK
 62
     0
 10
285.808652
 20
33.450263
 30
0.0
  0
ENDBLK
  8
0
  0
BLOCK
  8
0
  2
*D8
 70
    65
 10
0.0
 20
0.0
 30
0.0
  3
*D
  0
LINE
  8
0
  6
BYBLOCK
 62
     0
 10
285.808652
 20
34.362085
 30
0.0
 11
285.808652
 21
33.435263
 31
0.0
  0
LINE
  8
0
  6
BYBLOCK
 62
     0
 10
286.508652
 20
34.362085
 30
0.0
 11
286.508652
 21
33.435263
 31
0.0
  0
LINE
  8
0
  6
BYBLOCK
 62
     0
 10
285.658652
 20
33.450263
 30
0.0
 11
285.508652
 21
33.450263
 31
0.0
  0
LINE
  8
0
  6
BYBLOCK
 62
     0
 10
286.658652
 20
33.450263
 30
0.0
 11
286.808652
 21
33.450263
 31
0.0
  0
SOLID
  8
0
  6
BYBLOCK
 62
     0
 10
285.658652
 20
33.475263
 30
0.0
 11
285.658652
 21
33.425263
 31
0.0
 12
285.808652
 22
33.450263
 32
0.0
 13
285.808652
 23
33.450263
 33
0.0
  0
SOLID
  8
0
  6
BYBLOCK
 62
     0
 10
286.658652
 20
33.475263
 30
0.0
 11
286.658652
 21
33.425263
 31
0.0
 12
286.508652
 22
33.450263
 32
0.0
 13
286.508652
 23
33.450263
 33
0.0
  0
LINE
  8
0
  6
BYBLOCK
 62
     0
 10
285.808652
 20
33.450263
 30
0.0
 11
286.508652
 21
33.450263
 31
0.0
  0
TEXT
  8
0
  6
BYBLOCK
 62
     0
 10
286.033652
 20
33.487763
 30
0.0
 40
0.075
  1
0.70
  7
ROMANC
 72
     1
 11
286.158652
 21
33.525263
 31
0.0
 73
     2
  0
POINT
  8
DEFPOINTS
  6
BYBLOCK
 62
     0
 10
285.808652
 20
34.377085
 30
0.0
  0
POINT
  8
DEFPOINTS
  6
BYBLOCK
 62
     0
 10
286.508652
 20
34.377085
 30
0.0
  0
POINT
  8
DEFPOINTS
  6
BYBLOCK
 62
     0
 10
286.508652
 20
33.450263
 30
0.0
  0
ENDBLK
  8
0
  0
BLOCK
  8
0
  2
*D9
 70
    65
 10
0.0
 20
0.0
 30
0.0
  3
*D
  0
LINE
  8
0
  6
BYBLOCK
 62
     0
 10
286.508652
 20
34.362085
 30
0.0
 11
286.508652
 21
33.435263
 31
0.0
  0
LINE
  8
0
  6
BYBLOCK
 62
     0
 10
287.233652
 20
34.362085
 30
0.0
 11
287.233652
 21
33.435263
 31
0.0
  0
LINE
  8
0
  6
BYBLOCK
 62
     0
 10
286.358652
 20
33.450263
 30
0.0
 11
286.208652
 21
33.450263
 31
0.0
  0
LINE
  8
0
  6
BYBLOCK
 62
     0
 10
287.383652
 20
33.450263
 30
0.0
 11
287.533652
 21
33.450263
 31
0.0
  0
SOLID
  8
0
  6
BYBLOCK
 62
     0
 10
286.358652
 20
33.475263
 30
0.0
 11
286.358652
 21
33.425263
 31
0.0
 12
286.508652
 22
33.450263
 32
0.0
 13
286.508652
 23
33.450263
 33
0.0
  0
SOLID
  8
0
  6
BYBLOCK
 62
     0
 10
287.383652
 20
33.475263
 30
0.0
 11
287.383652
 21
33.425263
 31
0.0
 12
287.233652
 22
33.450263
 32
0.0
 13
287.233652
 23
33.450263
 33
0.0
  0
LINE
  8
0
  6
BYBLOCK
 62
     0
 10
286.508652
 20
33.450263
 30
0.0
 11
287.233652
 21
33.450263
 31
0.0
  0
TEXT
  8
0
  6
BYBLOCK
 62
     0
 10
286.746152
 20
33.487763
 30
0.0
 40
0.075
  1
0.73
  7
ROMANC
 72
     1
 11
286.871152
 21
33.525263
 31
0.0
 73
     2
  0
POINT
  8
DEFPOINTS
  6
BYBLOCK
 62
     0
 10
286.508652
 20
34.377085
 30
0.0
  0
POINT
  8
DEFPOINTS
  6
BYBLOCK
 62
     0
 10
287.233652
 20
34.377085
 30
0.0
  0
POINT
  8
DEFPOINTS
  6
BYBLOCK
 62
     0
 10
287.233652
 20
33.450263
 30
0.0
  0
ENDBLK
  8
0
  0
BLOCK
  8
0
  2
*D10
 70
    65
 10
0.0
 20
0.0
 30
0.0
  3
*D
  0
LINE
  8
0
  6
BYBLOCK
 62
     0
 10
286.154892
 20
33.929371
 30
0.0
 11
288.83008
 21
33.929371
 31
0.0
  0
LINE
  8
0
  6
BYBLOCK
 62
     0
 10
286.137798
 20
36.167275
 30
0.0
 11
288.83008
 21
36.167275
 31
0.0
  0
LINE
  8
0
  6
BYBLOCK
 62
     0
 10
288.81508
 20
34.079371
 30
0.0
 11
288.81508
 21
36.017275
 31
0.0
  0
SOLID
  8
0
  6
BYBLOCK
 62
     0
 10
288.79008
 20
34.079371
 30
0.0
 11
288.84008
 21
34.079371
 31
0.0
 12
288.81508
 22
33.929371
 32
0.0
 13
288.81508
 23
33.929371
 33
0.0
  0
SOLID
  8
0
  6
BYBLOCK
 62
     0
 10
288.79008
 20
36.017275
 30
0.0
 11
288.84008
 21
36.017275
 31
0.0
 12
288.81508
 22
36.167275
 32
0.0
 13
288.81508
 23
36.167275
 33
0.0
  0
TEXT
  8
0
  6
BYBLOCK
 62
     0
 10
288.77758
 20
34.923323
 30
0.0
 40
0.075
  1
2.25
 50
90.0
  7
ROMANC
 72
     1
 11
288.74008
 21
35.048323
 31
0.0
 73
     2
  0
POINT
  8
DEFPOINTS
  6
BYBLOCK
 62
     0
 10
286.139892
 20
33.929371
 30
0.0
  0
POINT
  8
DEFPOINTS
  6
BYBLOCK
 62
     0
 10
286.122798
 20
36.167275
 30
0.0
  0
POINT
  8
DEFPOINTS
  6
BYBLOCK
 62
     0
 10
288.81508
 20
36.167275
 30
0.0
  0
ENDBLK
  8
0
  0
BLOCK
  8
0
  2
*D11
 70
    65
 10
0.0
 20
0.0
 30
0.0
  3
*D
  0
LINE
  8
0
  6
BYBLOCK
 62
     0
 10
286.20903
 20
33.929371
 30
0.0
 11
287.915559
 21
33.929371
 31
0.0
  0
LINE
  8
0
  6
BYBLOCK
 62
     0
 10
287.248652
 20
34.377085
 30
0.0
 11
287.915559
 21
34.377085
 31
0.0
  0
LINE
  8
0
  6
BYBLOCK
 62
     0
 10
287.900559
 20
33.779371
 30
0.0
 11
287.900559
 21
33.629371
 31
0.0
  0
LINE
  8
0
  6
BYBLOCK
 62
     0
 10
287.900559
 20
34.527085
 30
0.0
 11
287.900559
 21
34.677085
 31
0.0
  0
SOLID
  8
0
  6
BYBLOCK
 62
     0
 10
287.875559
 20
33.779371
 30
0.0
 11
287.925559
 21
33.779371
 31
0.0
 12
287.900559
 22
33.929371
 32
0.0
 13
287.900559
 23
33.929371
 33
0.0
  0
SOLID
  8
0
  6
BYBLOCK
 62
     0
 10
287.875559
 20
34.527085
 30
0.0
 11
287.925559
 21
34.527085
 31
0.0
 12
287.900559
 22
34.377085
 32
0.0
 13
287.900559
 23
34.377085
 33
0.0
  0
LINE
  8
0
  6
BYBLOCK
 62
     0
 10
287.900559
 20
33.929371
 30
0.0
 11
287.900559
 21
34.377085
 31
0.0
  0
TEXT
  8
0
  6
BYBLOCK
 62
     0
 10
287.863059
 20
34.028228
 30
0.0
 40
0.075
  1
0.45
 50
90.0
  7
ROMANC
 72
     1
 11
287.825559
 21
34.153228
 31
0.0
 73
     2
  0
POINT
  8
DEFPOINTS
  6
BYBLOCK
 62
     0
 10
286.19403
 20
33.929371
 30
0.0
  0
POINT
  8
DEFPOINTS
  6
BYBLOCK
 62
     0
 10
287.233652
 20
34.377085
 30
0.0
  0
POINT
  8
DEFPOINTS
  6
BYBLOCK
 62
     0
 10
287.900559
 20
34.377085
 30
0.0
  0
ENDBLK
  8
0
  0
BLOCK
  8
0
  2
*D12
 70
    65
 10
0.0
 20
0.0
 30
0.0
  3
*D
  0
LINE
  8
0
  6
BYBLOCK
 62
     0
 10
287.248652
 20
34.377085
 30
0.0
 11
287.915559
 21
34.377085
 31
0.0
  0
LINE
  8
0
  6
BYBLOCK
 62
     0
 10
287.248652
 20
35.727085
 30
0.0
 11
287.915559
 21
35.727085
 31
0.0
  0
LINE
  8
0
  6
BYBLOCK
 62
     0
 10
287.900559
 20
34.527085
 30
0.0
 11
287.900559
 21
35.577085
 31
0.0
  0
SOLID
  8
0
  6
BYBLOCK
 62
     0
 10
287.875559
 20
34.527085
 30
0.0
 11
287.925559
 21
34.527085
 31
0.0
 12
287.900559
 22
34.377085
 32
0.0
 13
287.900559
 23
34.377085
 33
0.0
  0
SOLID
  8
0
  6
BYBLOCK
 62
     0
 10
287.875559
 20
35.577085
 30
0.0
 11
287.925559
 21
35.577085
 31
0.0
 12
287.900559
 22
35.727085
 32
0.0
 13
287.900559
 23
35.727085
 33
0.0
  0
TEXT
  8
0
  6
BYBLOCK
 62
     0
 10
287.863059
 20
34.921728
 30
0.0
 40
0.075
  1
1.35
 50
90.0
  7
ROMANC
 72
     1
 11
287.825559
 21
35.052085
 31
0.0
 73
     2
  0
POINT
  8
DEFPOINTS
  6
BYBLOCK
 62
     0
 10
287.233652
 20
34.377085
 30
0.0
  0
POINT
  8
DEFPOINTS
  6
BYBLOCK
 62
     0
 10
287.233652
 20
35.727085
 30
0.0
  0
POINT
  8
DEFPOINTS
  6
BYBLOCK
 62
     0
 10
287.900559
 20
35.727085
 30
0.0
  0
ENDBLK
  8
0
  0
BLOCK
  8
0
  2
*D13
 70
    65
 10
0.0
 20
0.0
 30
0.0
  3
*D
  0
LINE
  8
0
  6
BYBLOCK
 62
     0
 10
287.248652
 20
35.727085
 30
0.0
 11
287.915559
 21
35.727085
 31
0.0
  0
LINE
  8
0
  6
BYBLOCK
 62
     0
 10
286.397642
 20
36.167275
 30
0.0
 11
287.915559
 21
36.167275
 31
0.0
  0
LINE
  8
0
  6
BYBLOCK
 62
     0
 10
287.900559
 20
35.577085
 30
0.0
 11
287.900559
 21
35.427085
 31
0.0
  0
LINE
  8
0
  6
BYBLOCK
 62
     0
 10
287.900559
 20
36.317275
 30
0.0
 11
287.900559
 21
36.467275
 31
0.0
  0
SOLID
  8
0
  6
BYBLOCK
 62
     0
 10
287.875559
 20
35.577085
 30
0.0
 11
287.925559
 21
35.577085
 31
0.0
 12
287.900559
 22
35.727085
 32
0.0
 13
287.900559
 23
35.727085
 33
0.0
  0
SOLID
  8
0
  6
BYBLOCK
 62
     0
 10
287.875559
 20
36.317275
 30
0.0
 11
287.925559
 21
36.317275
 31
0.0
 12
287.900559
 22
36.167275
 32
0.0
 13
287.900559
 23
36.167275
 33
0.0
  0
LINE
  8
0
  6
BYBLOCK
 62
     0
 10
287.900559
 20
35.727085
 30
0.0
 11
287.900559
 21
36.167275
 31
0.0
  0
TEXT
  8
0
  6
BYBLOCK
 62
     0
 10
287.863059
 20
35.82218
 30
0.0
 40
0.075
  1
0.45
 50
90.0
  7
ROMANC
 72
     1
 11
287.825559
 21
35.94718
 31
0.0
 73
     2
  0
POINT
  8
DEFPOINTS
  6
BYBLOCK
 62
     0
 10
287.233652
 20
35.727085
 30
0.0
  0
POINT
  8
DEFPOINTS
  6
BYBLOCK
 62
     0
 10
286.382642
 20
36.167275
 30
0.0
  0
POINT
  8
DEFPOINTS
  6
BYBLOCK
 62
     0
 10
287.900559
 20
36.167275
 30
0.0
  0
ENDBLK
  8
0
  0
ENDSEC
  0
SECTION
  2
ENTITIES
  0
POLYLINE
  8
0
 66
     1
 10
0.0
 20
0.0
 30
0.0
  0
VERTEX
  8
0
 10
108.040631
 20
-16.548467
 30
0.0
 42
0.063415
  0
SEQEND
  8
0
  0
POLYLINE
  8
0
 66
     1
 10
0.0
 20
0.0
 30
0.0
  0
VERTEX
  8
0
 10
86.286488
 20
-15.036857
 30
0.0
 42
0.22708
  0
SEQEND
  8
0
  0
POLYLINE
  8
0
 66
     1
 10
0.0
 20
0.0
 30
0.0
  0
VERTEX
  8
0
 10
72.351426
 20
-14.976331
 30
0.0
 42
0.089446
  0
SEQEND
  8
0
  0
POLYLINE
  8
0
 66
     1
 10
0.0
 20
0.0
 30
0.0
  0
VERTEX
  8
0
 10
97.210524
 20
16.938509
 30
0.0
 42
0.05817
  0
SEQEND
  8
0
  0
POLYLINE
  8
0
 66
     1
 10
0.0
 20
0.0
 30
0.0
  0
VERTEX
  8
0
 10
121.196188
 20
17.602271
 30
0.0
 42
0.156162
  0
SEQEND
  8
0
  0
POLYLINE
  8
0
 66
     1
 10
0.0
 20
0.0
 30
0.0
  0
VERTEX
  8
0
 10
119.340696
 20
34.532686
 30
0.0
 42
0.283046
  0
SEQEND
  8
0
  0
POLYLINE
  8
0
 66
     1
 10
0.0
 20
0.0
 30
0.0
  0
VERTEX
  8
0
 10
157.359637
 20
32.54887
 30
0.0
 42
0.269827
  0
SEQEND
  8
0
  0
POLYLINE
  8
0
 66
     1
 10
0.0
 20
0.0
 30
0.0
  0
VERTEX
  8
0
 10
156.169702
 20
18.299763
 30
0.0
 42
0.066056
  0
SEQEND
  8
0
  0
POLYLINE
  8
0
 66
     1
 10
0.0
 20
0.0
 30
0.0
  0
VERTEX
  8
0
 10
168.512554
 20
1.430566
 30
0.0
 42
0.148501
  0
SEQEND
  8
0
  0
POLYLINE
  8
0
 66
     1
 10
0.0
 20
0.0
 30
0.0
  0
VERTEX
  8
0
 10
168.689549
 20
33.579487
 30
0.0
 42
0.08626
  0
SEQEND
  8
0
  0
POLYLINE
  8
0
 66
     1
 10
0.0
 20
0.0
 30
0.0
  0
VERTEX
  8
0
 10
180.209617
 20
34.197499
 30
0.0
 42
0.059446
  0
SEQEND
  8
0
  0
POLYLINE
  8
0
 66
     1
 10
0.0
 20
0.0
 30
0.0
  0
VERTEX
  8
0
 10
168.213495
 20
14.734069
 30
0.0
 42
0.06661
  0
SEQEND
  8
0
  0
POLYLINE
  8
0
 66
     1
 10
0.0
 20
0.0
 30
0.0
  0
VERTEX
  8
0
 10
180.09759
 20
16.643931
 30
0.0
 42
0.165716
  0
SEQEND
  8
0
  0
POLYLINE
  8
0
 66
     1
 10
0.0
 20
0.0
 30
0.0
  0
VERTEX
  8
0
 10
180.349774
 20
-12.199421
 30
0.0
 42
0.098491
  0
SEQEND
  8
0
  0
POLYLINE
  8
0
 66
     1
 10
0.0
 20
0.0
 30
0.0
  0
VERTEX
  8
0
 10
194.593929
 20
-14.402211
 30
0.0
 42
0.098491
  0
SEQEND
  8
0
  0
POLYLINE
  8
0
 66
     1
 10
0.0
 20
0.0
 30
0.0
  0
VERTEX
  8
0
 10
192.091391
 20
16.821986
 30
0.0
 42
0.129253
  0
SEQEND
  8
0
  0
LINE
  8
0
 10
291.895795
 20
29.897444
 30
0.0
 11
291.895795
 21
44.747444
 31
0.0
  0
TEXT
  8
0
 10
283.887846
 20
40.56142
 30
0.0
 40
0.3
  1
P = 79.1 dm
  7
ROMANC
  0
LINE
  8
0
 10
281.395795
 20
44.747444
 30
0.0
 11
281.395795
 21
29.897444
 31
0.0
  0
LINE
  8
0
 10
281.395795
 20
29.897444
 30
0.0
 11
291.895795
 21
29.897444
 31
0.0
  0
LINE
  8
0
 10
291.895795
 20
44.747444
 30
0.0
 11
281.395795
 21
44.747444
 31
0.0
  0
TEXT
  8
0
 10
287.122271
 20
41.564915
 30
0.0
 40
0.1
  1
2
  7
ROMANC
  0
TEXT
  8
0
 10
283.925768
 20
41.857589
 30
0.0
 40
0.3
  1
ESCALA  1:50
  7
ROMANC
  0
TEXT
  8
0
 10
283.925768
 20
42.343303
 30
0.0
 40
0.3
  1
TIPUS   NT391
  7
ROMANC
  0
TEXT
  8
0
 10
283.938862
 20
41.258999
 30
0.0
 40
0.3
  1
S=  391 dm
  7
ROMANC
  0
POLYLINE
  8
0
 66
     1
 10
0.0
 20
0.0
 30
0.0
  0
VERTEX
  8
0
 10
285.562002
 20
36.153868
 30
0.0
 42
0.113017
  0
SEQEND
  8
0
  0
POLYLINE
  8
0
 66
     1
 10
0.0
 20
0.0
 30
0.0
  0
VERTEX
  8
0
 10
285.562002
 20
36.153868
 30
0.0
 42
0.098491
  0
SEQEND
  8
0
  0
POLYLINE
  8
0
 66
     1
 10
0.0
 20
0.0
 30
0.0
  0
VERTEX
  8
0
 10
285.083652
 20
35.727085
 30
0.0
 42
0.197542
  0
SEQEND
  8
0
  0
ARC
  8
0
 10
286.203596
 20
34.286334
 30
0.0
 40
0.380471
 50
217.874984
 51
241.962007
  0
ARC
  8
0
 10
286.158652
 20
34.201941
 30
0.0
 40
0.284856
 50
241.962007
 51
270.0
  0
ARC
  8
0
 10
286.158652
 20
34.201941
 30
0.0
 40
0.284856
 50
270.0
 51
298.037993
  0
ARC
  8
0
 10
286.113707
 20
34.286334
 30
0.0
 40
0.380471
 50
298.037993
 51
322.125016
  0
ARC
  8
0
 10
286.043089
 20
34.341259
 30
0.0
 40
0.469934
 50
322.125016
 51
342.142819
  0
ARC
  8
0
 10
285.931886
 20
34.377085
 30
0.0
 40
0.586765
 50
342.142819
 51
359.023484
  0
LINE
  8
0
 10
286.518566
 20
34.367085
 30
0.0
 11
287.243652
 21
34.367085
 31
0.0
  0
LINE
  8
0
 10
287.243652
 20
34.367085
 30
0.0
 11
287.243652
 21
35.727085
 31
0.0
  0
ARC
  8
0
 10
287.025576
 20
35.727085
 30
0.0
 40
0.218076
 50
0.0
 51
44.697907
  0
ARC
  8
0
 10
286.615898
 20
35.321705
 30
0.0
 40
0.794416
 50
44.697907
 51
67.285588
  0
ARC
  8
0
 10
286.340512
 20
34.663838
 30
0.0
 40
1.507597
 50
67.285588
 51
80.163188
  0
ARC
  8
0
 10
286.158652
 20
33.614996
 30
0.0
 40
2.572089
 50
80.163188
 51
90.0
  0
ARC
  8
0
 10
286.158652
 20
33.614996
 30
0.0
 40
2.572089
 50
90.0
 51
99.836812
  0
ARC
  8
0
 10
285.976791
 20
34.663838
 30
0.0
 40
1.507597
 50
99.836812
 51
112.714412
  0
ARC
  8
0
 10
285.701405
 20
35.321705
 30
0.0
 40
0.794416
 50
112.714412
 51
135.302093
  0
ARC
  8
0
 10
285.291728
 20
35.727085
 30
0.0
 40
0.218076
 50
135.302093
 51
180.0
  0
LINE
  8
0
 10
285.073652
 20
35.727085
 30
0.0
 11
285.073652
 21
34.367085
 31
0.0
  0
LINE
  8
0
 10
285.073652
 20
34.367085
 30
0.0
 11
285.798737
 21
34.367085
 31
0.0
  0
ARC
  8
0
 10
286.385417
 20
34.377085
 30
0.0
 40
0.586765
 50
180.976516
 51
197.857181
  0
ARC
  8
0
 10
286.274214
 20
34.341259
 30
0.0
 40
0.469934
 50
197.857181
 51
217.874984
  0
LINE
  8
0
  6
BYBLOCK
 62
     0
 10
285.083652
 20
34.362085
 30
0.0
 11
285.083652
 21
33.435263
 31
0.0
  0
LINE
  8
0
  6
BYBLOCK
 62
     0
 10
285.808652
 20
34.362085
 30
0.0
 11
285.808652
 21
33.435263
 31
0.0
  0
LINE
  8
0
  6
BYBLOCK
 62
     0
 10
284.933652
 20
33.450263
 30
0.0
 11
284.783652
 21
33.450263
 31
0.0
  0
LINE
  8
0
  6
BYBLOCK
 62
     0
 10
285.958652
 20
33.450263
 30
0.0
 11
286.108652
 21
33.450263
 31
0.0
  0
SOLID
  8
0
  6
BYBLOCK
 62
     0
 10
284.933652
 20
33.475263
 30
0.0
 11
284.933652
 21
33.425263
 31
0.0
 12
285.083652
 22
33.450263
 32
0.0
 13
285.083652
 23
33.450263
 33
0.0
  0
SOLID
  8
0
  6
BYBLOCK
 62
     0
 10
285.958652
 20
33.475263
 30
0.0
 11
285.958652
 21
33.425263
 31
0.0
 12
285.808652
 22
33.450263
 32
0.0
 13
285.808652
 23
33.450263
 33
0.0
  0
LINE
  8
0
  6
BYBLOCK
 62
     0
 10
285.083652
 20
33.450263
 30
0.0
 11
285.808652
 21
33.450263
 31
0.0
  0
TEXT
  8
0
  6
BYBLOCK
 62
     0
 10
285.321152
 20
33.487763
 30
0.0
 40
0.075
  1
0.73
  7
ROMANC
 72
     1
 11
285.446152
 21
33.525263
 31
0.0
 73
     2
  0
POINT
  8
DEFPOINTS
  6
BYBLOCK
 62
     0
 10
285.083652
 20
34.377085
 30
0.0
  0
POINT
  8
DEFPOINTS
  6
BYBLOCK
 62
     0
 10
285.808652
 20
34.377085
 30
0.0
  0
POINT
  8
DEFPOINTS
  6
BYBLOCK
 62
     0
 10
285.808652
 20
33.450263
 30
0.0
  0
ARC
  8
0
 10
286.203596
 20
34.286334
 30
0.0
 40
0.370471
 50
217.874984
 51
241.962007
  0
ARC
  8
0
 10
286.158652
 20
34.201941
 30
0.0
 40
0.274856
 50
241.962007
 51
270.0
  0
ARC
  8
0
 10
286.158652
 20
34.201941
 30
0.0
 40
0.274856
 50
270.0
 51
298.037993
  0
ARC
  8
0
 10
286.113707
 20
34.286334
 30
0.0
 40
0.370471
 50
298.037993
 51
322.125016
  0
ARC
  8
0
 10
286.043089
 20
34.341259
 30
0.0
 40
0.459934
 50
322.125016
 51
342.142819
  0
ARC
  8
0
 10
285.931886
 20
34.377085
 30
0.0
 40
0.576765
 50
342.142819
 51
0.0
  0
LINE
  8
0
 10
286.508652
 20
34.377085
 30
0.0
 11
287.233652
 21
34.377085
 31
0.0
  0
LINE
  8
0
 10
287.233652
 20
34.377085
 30
0.0
 11
287.233652
 21
35.727085
 31
0.0
  0
ARC
  8
0
 10
287.025576
 20
35.727085
 30
0.0
 40
0.208076
 50
0.0
 51
44.697907
  0
ARC
  8
0
 10
286.615898
 20
35.321705
 30
0.0
 40
0.784416
 50
44.697907
 51
67.285588
  0
ARC
  8
0
 10
286.340512
 20
34.663838
 30
0.0
 40
1.497597
 50
67.285588
 51
80.163188
  0
ARC
  8
0
 10
286.158652
 20
33.614996
 30
0.0
 40
2.562089
 50
80.163188
 51
90.0
  0
ARC
  8
0
 10
286.158652
 20
33.614996
 30
0.0
 40
2.562089
 50
90.0
 51
99.836812
  0
ARC
  8
0
 10
285.976791
 20
34.663838
 30
0.0
 40
1.497597
 50
99.836812
 51
112.714412
  0
ARC
  8
0
 10
285.701405
 20
35.321705
 30
0.0
 40
0.784416
 50
112.714412
 51
135.302093
  0
ARC
  8
0
 10
285.291728
 20
35.727085
 30
0.0
 40
0.208076
 50
135.302093
 51
180.0
  0
LINE
  8
0
 10
285.083652
 20
35.727085
 30
0.0
 11
285.083652
 21
34.377085
 31
0.0
  0
LINE
  8
0
 10
285.083652
 20
34.377085
 30
0.0
 11
285.808652
 21
34.377085
 31
0.0
  0
ARC
  8
0
 10
286.385417
 20
34.377085
 30
0.0
 40
0.576765
 50
180.0
 51
197.857181
  0
ARC
  8
0
 10
286.274214
 20
34.341259
 30
0.0
 40
0.459934
 50
197.857181
 51
217.874984
  0
ARC
  8
0
 10
286.203596
 20
34.286334
 30
0.0
 40
0.360471
 50
217.874984
 51
241.962007
  0
ARC
  8
0
 10
286.158652
 20
34.201941
 30
0.0
 40
0.264856
 50
241.962007
 51
270.0
  0
ARC
  8
0
 10
286.158652
 20
34.201941
 30
0.0
 40
0.264856
 50
270.0
 51
298.037993
  0
ARC
  8
0
 10
286.113707
 20
34.286334
 30
0.0
 40
0.360471
 50
298.037993
 51
322.125016
  0
ARC
  8
0
 10
286.043089
 20
34.341259
 30
0.0
 40
0.449934
 50
322.125016
 51
342.142819
  0
ARC
  8
0
 10
285.931886
 20
34.377085
 30
0.0
 40
0.566765
 50
342.142819
 51
1.010979
  0
LINE
  8
0
 10
286.498563
 20
34.387085
 30
0.0
 11
287.223652
 21
34.387085
 31
0.0
  0
LINE
  8
0
 10
287.223652
 20
34.387085
 30
0.0
 11
287.223652
 21
35.727085
 31
0.0
  0
ARC
  8
0
 10
287.025576
 20
35.727085
 30
0.0
 40
0.198076
 50
0.0
 51
44.697907
  0
ARC
  8
0
 10
286.615898
 20
35.321705
 30
0.0
 40
0.774416
 50
44.697907
 51
67.285588
  0
ARC
  8
0
 10
286.340512
 20
34.663838
 30
0.0
 40
1.487597
 50
67.285588
 51
80.163188
  0
ARC
  8
0
 10
286.158652
 20
33.614996
 30
0.0
 40
2.552089
 50
80.163188
 51
90.0
  0
ARC
  8
0
 10
286.158652
 20
33.614996
 30
0.0
 40
2.552089
 50
90.0
 51
99.836812
  0
ARC
  8
0
 10
285.976791
 20
34.663838
 30
0.0
 40
1.487597
 50
99.836812
 51
112.714412
  0
ARC
  8
0
 10
285.701405
 20
35.321705
 30
0.0
 40
0.774416
 50
112.714412
 51
135.302093
  0
ARC
  8
0
 10
285.291728
 20
35.727085
 30
0.0
 40
0.198076
 50
135.302093
 51
180.0
  0
LINE
  8
0
 10
285.093652
 20
35.727085
 30
0.0
 11
285.093652
 21
34.387085
 31
0.0
  0
LINE
  8
0
 10
285.093652
 20
34.387085
 30
0.0
 11
285.81874
 21
34.387085
 31
0.0
  0
ARC
  8
0
 10
286.385417
 20
34.377085
 30
0.0
 40
0.566765
 50
178.989021
 51
197.857181
  0
ARC
  8
0
 10
286.274214
 20
34.341259
 30
0.0
 40
0.449934
 50
197.857181
 51
217.874984
  0
LINE
  8
0
  6
BYBLOCK
 62
     0
 10
287.248652
 20
35.727085
 30
0.0
 11
287.915559
 21
35.727085
 31
0.0
  0
LINE
  8
0
  6
BYBLOCK
 62
     0
 10
286.397642
 20
36.167275
 30
0.0
 11
287.915559
 21
36.167275
 31
0.0
  0
LINE
  8
0
  6
BYBLOCK
 62
     0
 10
287.900559
 20
35.577085
 30
0.0
 11
287.900559
 21
35.427085
 31
0.0
  0
LINE
  8
0
  6
BYBLOCK
 62
     0
 10
287.900559
 20
36.317275
 30
0.0
 11
287.900559
 21
36.467275
 31
0.0
  0
SOLID
  8
0
  6
BYBLOCK
 62
     0
 10
287.875559
 20
35.577085
 30
0.0
 11
287.925559
 21
35.577085
 31
0.0
 12
287.900559
 22
35.727085
 32
0.0
 13
287.900559
 23
35.727085
 33
0.0
  0
SOLID
  8
0
  6
BYBLOCK
 62
     0
 10
287.875559
 20
36.317275
 30
0.0
 11
287.925559
 21
36.317275
 31
0.0
 12
287.900559
 22
36.167275
 32
0.0
 13
287.900559
 23
36.167275
 33
0.0
  0
LINE
  8
0
  6
BYBLOCK
 62
     0
 10
287.900559
 20
35.727085
 30
0.0
 11
287.900559
 21
36.167275
 31
0.0
  0
TEXT
  8
0
  6
BYBLOCK
 62
     0
 10
287.863059
 20
35.82218
 30
0.0
 40
0.075
  1
0.45
 50
90.0
  7
ROMANC
 72
     1
 11
287.825559
 21
35.94718
 31
0.0
 73
     2
  0
POINT
  8
DEFPOINTS
  6
BYBLOCK
 62
     0
 10
287.233652
 20
35.727085
 30
0.0
  0
POINT
  8
DEFPOINTS
  6
BYBLOCK
 62
     0
 10
286.382642
 20
36.167275
 30
0.0
  0
POINT
  8
DEFPOINTS
  6
BYBLOCK
 62
     0
 10
287.900559
 20
36.167275
 30
0.0
  0
LINE
  8
0
  6
BYBLOCK
 62
     0
 10
287.248652
 20
34.377085
 30
0.0
 11
287.915559
 21
34.377085
 31
0.0
  0
LINE
  8
0
  6
BYBLOCK
 62
     0
 10
287.248652
 20
35.727085
 30
0.0
 11
287.915559
 21
35.727085
 31
0.0
  0
LINE
  8
0
  6
BYBLOCK
 62
     0
 10
287.900559
 20
34.527085
 30
0.0
 11
287.900559
 21
35.577085
 31
0.0
  0
SOLID
  8
0
  6
BYBLOCK
 62
     0
 10
287.875559
 20
34.527085
 30
0.0
 11
287.925559
 21
34.527085
 31
0.0
 12
287.900559
 22
34.377085
 32
0.0
 13
287.900559
 23
34.377085
 33
0.0
  0
SOLID
  8
0
  6
BYBLOCK
 62
     0
 10
287.875559
 20
35.577085
 30
0.0
 11
287.925559
 21
35.577085
 31
0.0
 12
287.900559
 22
35.727085
 32
0.0
 13
287.900559
 23
35.727085
 33
0.0
  0
TEXT
  8
0
  6
BYBLOCK
 62
     0
 10
287.863059
 20
34.921728
 30
0.0
 40
0.075
  1
1.35
 50
90.0
  7
ROMANC
 72
     1
 11
287.825559
 21
35.052085
 31
0.0
 73
     2
  0
POINT
  8
DEFPOINTS
  6
BYBLOCK
 62
     0
 10
287.233652
 20
34.377085
 30
0.0
  0
POINT
  8
DEFPOINTS
  6
BYBLOCK
 62
     0
 10
287.233652
 20
35.727085
 30
0.0
  0
POINT
  8
DEFPOINTS
  6
BYBLOCK
 62
     0
 10
287.900559
 20
35.727085
 30
0.0
  0
LINE
  8
0
  6
BYBLOCK
 62
     0
 10
286.20903
 20
33.929371
 30
0.0
 11
287.915559
 21
33.929371
 31
0.0
  0
LINE
  8
0
  6
BYBLOCK
 62
     0
 10
287.248652
 20
34.377085
 30
0.0
 11
287.915559
 21
34.377085
 31
0.0
  0
LINE
  8
0
  6
BYBLOCK
 62
     0
 10
287.900559
 20
33.779371
 30
0.0
 11
287.900559
 21
33.629371
 31
0.0
  0
LINE
  8
0
  6
BYBLOCK
 62
     0
 10
287.900559
 20
34.527085
 30
0.0
 11
287.900559
 21
34.677085
 31
0.0
  0
SOLID
  8
0
  6
BYBLOCK
 62
     0
 10
287.875559
 20
33.779371
 30
0.0
 11
287.925559
 21
33.779371
 31
0.0
 12
287.900559
 22
33.929371
 32
0.0
 13
287.900559
 23
33.929371
 33
0.0
  0
SOLID
  8
0
  6
BYBLOCK
 62
     0
 10
287.875559
 20
34.527085
 30
0.0
 11
287.925559
 21
34.527085
 31
0.0
 12
287.900559
 22
34.377085
 32
0.0
 13
287.900559
 23
34.377085
 33
0.0
  0
LINE
  8
0
  6
BYBLOCK
 62
     0
 10
287.900559
 20
33.929371
 30
0.0
 11
287.900559
 21
34.377085
 31
0.0
  0
TEXT
  8
0
  6
BYBLOCK
 62
     0
 10
287.863059
 20
34.028228
 30
0.0
 40
0.075
  1
0.45
 50
90.0
  7
ROMANC
 72
     1
 11
287.825559
 21
34.153228
 31
0.0
 73
     2
  0
POINT
  8
DEFPOINTS
  6
BYBLOCK
 62
     0
 10
286.19403
 20
33.929371
 30
0.0
  0
POINT
  8
DEFPOINTS
  6
BYBLOCK
 62
     0
 10
287.233652
 20
34.377085
 30
0.0
  0
POINT
  8
DEFPOINTS
  6
BYBLOCK
 62
     0
 10
287.900559
 20
34.377085
 30
0.0
  0
LINE
  8
0
  6
BYBLOCK
 62
     0
 10
286.154892
 20
33.929371
 30
0.0
 11
288.83008
 21
33.929371
 31
0.0
  0
LINE
  8
0
  6
BYBLOCK
 62
     0
 10
286.137798
 20
36.167275
 30
0.0
 11
288.83008
 21
36.167275
 31
0.0
  0
LINE
  8
0
  6
BYBLOCK
 62
     0
 10
288.81508
 20
34.079371
 30
0.0
 11
288.81508
 21
36.017275
 31
0.0
  0
SOLID
  8
0
  6
BYBLOCK
 62
     0
 10
288.79008
 20
34.079371
 30
0.0
 11
288.84008
 21
34.079371
 31
0.0
 12
288.81508
 22
33.929371
 32
0.0
 13
288.81508
 23
33.929371
 33
0.0
  0
SOLID
  8
0
  6
BYBLOCK
 62
     0
 10
288.79008
 20
36.017275
 30
0.0
 11
288.84008
 21
36.017275
 31
0.0
 12
288.81508
 22
36.167275
 32
0.0
 13
288.81508
 23
36.167275
 33
0.0
  0
TEXT
  8
0
  6
BYBLOCK
 62
     0
 10
288.77758
 20
34.923323
 30
0.0
 40
0.075
  1
2.25
 50
90.0
  7
ROMANC
 72
     1
 11
288.74008
 21
35.048323
 31
0.0
 73
     2
  0
POINT
  8
DEFPOINTS
  6
BYBLOCK
 62
     0
 10
286.139892
 20
33.929371
 30
0.0
  0
POINT
  8
DEFPOINTS
  6
BYBLOCK
 62
     0
 10
286.122798
 20
36.167275
 30
0.0
  0
POINT
  8
DEFPOINTS
  6
BYBLOCK
 62
     0
 10
288.81508
 20
36.167275
 30
0.0
  0
LINE
  8
0
  6
BYBLOCK
 62
     0
 10
286.508652
 20
34.362085
 30
0.0
 11
286.508652
 21
33.435263
 31
0.0
  0
LINE
  8
0
  6
BYBLOCK
 62
     0
 10
287.233652
 20
34.362085
 30
0.0
 11
287.233652
 21
33.435263
 31
0.0
  0
LINE
  8
0
  6
BYBLOCK
 62
     0
 10
286.358652
 20
33.450263
 30
0.0
 11
286.208652
 21
33.450263
 31
0.0
  0
LINE
  8
0
  6
BYBLOCK
 62
     0
 10
287.383652
 20
33.450263
 30
0.0
 11
287.533652
 21
33.450263
 31
0.0
  0
SOLID
  8
0
  6
BYBLOCK
 62
     0
 10
286.358652
 20
33.475263
 30
0.0
 11
286.358652
 21
33.425263
 31
0.0
 12
286.508652
 22
33.450263
 32
0.0
 13
286.508652
 23
33.450263
 33
0.0
  0
SOLID
  8
0
  6
BYBLOCK
 62
     0
 10
287.383652
 20
33.475263
 30
0.0
 11
287.383652
 21
33.425263
 31
0.0
 12
287.233652
 22
33.450263
 32
0.0
 13
287.233652
 23
33.450263
 33
0.0
  0
LINE
  8
0
  6
BYBLOCK
 62
     0
 10
286.508652
 20
33.450263
 30
0.0
 11
287.233652
 21
33.450263
 31
0.0
  0
TEXT
  8
0
  6
BYBLOCK
 62
     0
 10
286.746152
 20
33.487763
 30
0.0
 40
0.075
  1
0.73
  7
ROMANC
 72
     1
 11
286.871152
 21
33.525263
 31
0.0
 73
     2
  0
POINT
  8
DEFPOINTS
  6
BYBLOCK
 62
     0
 10
286.508652
 20
34.377085
 30
0.0
  0
POINT
  8
DEFPOINTS
  6
BYBLOCK
 62
     0
 10
287.233652
 20
34.377085
 30
0.0
  0
POINT
  8
DEFPOINTS
  6
BYBLOCK
 62
     0
 10
287.233652
 20
33.450263
 30
0.0
  0
LINE
  8
0
  6
BYBLOCK
 62
     0
 10
285.808652
 20
34.362085
 30
0.0
 11
285.808652
 21
33.435263
 31
0.0
  0
LINE
  8
0
  6
BYBLOCK
 62
     0
 10
286.508652
 20
34.362085
 30
0.0
 11
286.508652
 21
33.435263
 31
0.0
  0
LINE
  8
0
  6
BYBLOCK
 62
     0
 10
285.658652
 20
33.450263
 30
0.0
 11
285.508652
 21
33.450263
 31
0.0
  0
LINE
  8
0
  6
BYBLOCK
 62
     0
 10
286.658652
 20
33.450263
 30
0.0
 11
286.808652
 21
33.450263
 31
0.0
  0
SOLID
  8
0
  6
BYBLOCK
 62
     0
 10
285.658652
 20
33.475263
 30
0.0
 11
285.658652
 21
33.425263
 31
0.0
 12
285.808652
 22
33.450263
 32
0.0
 13
285.808652
 23
33.450263
 33
0.0
  0
SOLID
  8
0
  6
BYBLOCK
 62
     0
 10
286.658652
 20
33.475263
 30
0.0
 11
286.658652
 21
33.425263
 31
0.0
 12
286.508652
 22
33.450263
 32
0.0
 13
286.508652
 23
33.450263
 33
0.0
  0
LINE
  8
0
  6
BYBLOCK
 62
     0
 10
285.808652
 20
33.450263
 30
0.0
 11
286.508652
 21
33.450263
 31
0.0
  0
TEXT
  8
0
  6
BYBLOCK
 62
     0
 10
286.033652
 20
33.487763
 30
0.0
 40
0.075
  1
0.70
  7
ROMANC
 72
     1
 11
286.158652
 21
33.525263
 31
0.0
 73
     2
  0
POINT
  8
DEFPOINTS
  6
BYBLOCK
 62
     0
 10
285.808652
 20
34.377085
 30
0.0
  0
POINT
  8
DEFPOINTS
  6
BYBLOCK
 62
     0
 10
286.508652
 20
34.377085
 30
0.0
  0
POINT
  8
DEFPOINTS
  6
BYBLOCK
 62
     0
 10
286.508652
 20
33.450263
 30
0.0
  0
LINE
  8
0
  6
BYBLOCK
 62
     0
 10
285.083652
 20
34.362085
 30
0.0
 11
285.083652
 21
32.651028
 31
0.0
  0
LINE
  8
0
  6
BYBLOCK
 62
     0
 10
287.233652
 20
34.362085
 30
0.0
 11
287.233652
 21
32.651028
 31
0.0
  0
LINE
  8
0
  6
BYBLOCK
 62
     0
 10
285.233652
 20
32.666028
 30
0.0
 11
287.083652
 21
32.666028
 31
0.0
  0
SOLID
  8
0
  6
BYBLOCK
 62
     0
 10
285.233652
 20
32.691028
 30
0.0
 11
285.233652
 21
32.641028
 31
0.0
 12
285.083652
 22
32.666028
 32
0.0
 13
285.083652
 23
32.666028
 33
0.0
  0
SOLID
  8
0
  6
BYBLOCK
 62
     0
 10
287.083652
 20
32.691028
 30
0.0
 11
287.083652
 21
32.641028
 31
0.0
 12
287.233652
 22
32.666028
 32
0.0
 13
287.233652
 23
32.666028
 33
0.0
  0
TEXT
  8
0
  6
BYBLOCK
 62
     0
 10
286.033652
 20
32.703528
 30
0.0
 40
0.075
  1
2.15
  7
ROMANC
 72
     1
 11
286.158652
 21
32.741028
 31
0.0
 73
     2
  0
POINT
  8
DEFPOINTS
  6
BYBLOCK
 62
     0
 10
285.083652
 20
34.377085
 30
0.0
  0
POINT
  8
DEFPOINTS
  6
BYBLOCK
 62
     0
 10
287.233652
 20
34.377085
 30
0.0
  0
POINT
  8
DEFPOINTS
  6
BYBLOCK
 62
     0
 10
287.233652
 20
32.666028
 30
0.0
  0
ENDSEC
  0
EOF
