  0
SECTION
  2
HEADER
  9
$ACADVER
  1
AC1009
  9
$INSBASE
 10
218.987126
 20
216.172292
 30
0.0
  9
$EXTMIN
 10
218.987126
 20
216.172292
 30
0.0
  9
$EXTMAX
 10
229.487126
 20
231.022292
 30
0.0
  9
$LIMMIN
 10
0.0
 20
0.0
  9
$LIMMAX
 10
410.0
 20
287.0
  9
$ORTHOMODE
 70
     0
  9
$REGENMODE
 70
     1
  9
$FILLMODE
 70
     1
  9
$QTEXTMODE
 70
     0
  9
$MIRRTEXT
 70
     1
  9
$DRAGMODE
 70
     2
  9
$LTSCALE
 40
25.0
  9
$OSMODE
 70
    32
  9
$ATTMODE
 70
     1
  9
$TEXTSIZE
 40
0.1
  9
$TRACEWID
 40
0.3
  9
$TEXTSTYLE
  7
STANDARD
  9
$CLAYER
  8
0
  9
$CELTYPE
  6
BYLAYER
  9
$CECOLOR
 62
   256
  9
$DIMSCALE
 40
1.0
  9
$DIMASZ
 40
3.5
  9
$DIMEXO
 40
0.1
  9
$DIMDLI
 40
7.0
  9
$DIMRND
 40
0.0
  9
$DIMDLE
 40
0.0
  9
$DIMEXE
 40
1.8
  9
$DIMTP
 40
0.0
  9
$DIMTM
 40
0.0
  9
$DIMTXT
 40
3.5
  9
$DIMCEN
 40
1.5
  9
$DIMTSZ
 40
0.0
  9
$DIMTOL
 70
     0
  9
$DIMLIM
 70
     0
  9
$DIMTIH
 70
     0
  9
$DIMTOH
 70
     0
  9
$DIMSE1
 70
     0
  9
$DIMSE2
 70
     0
  9
$DIMTAD
 70
     0
  9
$DIMZIN
 70
     0
  9
$DIMBLK
  1

  9
$DIMASO
 70
     1
  9
$DIMSHO
 70
     0
  9
$DIMPOST
  1

  9
$DIMAPOST
  1

  9
$DIMALT
 70
     0
  9
$DIMALTD
 70
     2
  9
$DIMALTF
 40
25.4
  9
$DIMLFAC
 40
1.0
  9
$DIMTOFL
 70
     0
  9
$DIMTVP
 40
0.0
  9
$DIMTIX
 70
     0
  9
$DIMSOXD
 70
     0
  9
$DIMSAH
 70
     0
  9
$DIMBLK1
  1

  9
$DIMBLK2
  1

  9
$DIMSTYLE
  2
*UNNAMED
  9
$DIMCLRD
 70
     0
  9
$DIMCLRE
 70
     0
  9
$DIMCLRT
 70
     0
  9
$DIMTFAC
 40
1.0
  9
$DIMGAP
 40
0.09
  9
$LUNITS
 70
     2
  9
$LUPREC
 70
     2
  9
$SKETCHINC
 40
1.0
  9
$FILLETRAD
 40
0.0
  9
$AUNITS
 70
     0
  9
$AUPREC
 70
     0
  9
$MENU
  1
acad
  9
$ELEVATION
 40
0.0
  9
$PELEVATION
 40
0.0
  9
$THICKNESS
 40
0.0
  9
$LIMCHECK
 70
     0
  9
$BLIPMODE
 70
     0
  9
$CHAMFERA
 40
0.0
  9
$CHAMFERB
 40
0.0
  9
$SKPOLY
 70
     0
  9
$TDCREATE
 40
2449961.502608217
  9
$TDUPDATE
 40
2450721.726921064
  9
$TDINDWG
 40
0.0042561343
  9
$TDUSRTIMER
 40
0.0042561343
  9
$USRTIMER
 70
     1
  9
$ANGBASE
 50
0.0
  9
$ANGDIR
 70
     0
  9
$PDMODE
 70
     0
  9
$PDSIZE
 40
0.0
  9
$PLINEWID
 40
0.0
  9
$COORDS
 70
     2
  9
$SPLFRAME
 70
     0
  9
$SPLINETYPE
 70
     6
  9
$SPLINESEGS
 70
     8
  9
$ATTDIA
 70
     0
  9
$ATTREQ
 70
     1
  9
$HANDLING
 70
     0
  9
$HANDSEED
  5
0
  9
$SURFTAB1
 70
     6
  9
$SURFTAB2
 70
     6
  9
$SURFTYPE
 70
     6
  9
$SURFU
 70
     6
  9
$SURFV
 70
     6
  9
$UCSNAME
  2

  9
$UCSORG
 10
0.0
 20
0.0
 30
0.0
  9
$UCSXDIR
 10
1.0
 20
0.0
 30
0.0
  9
$UCSYDIR
 10
0.0
 20
1.0
 30
0.0
  9
$PUCSNAME
  2

  9
$PUCSORG
 10
0.0
 20
0.0
 30
0.0
  9
$PUCSXDIR
 10
1.0
 20
0.0
 30
0.0
  9
$PUCSYDIR
 10
0.0
 20
1.0
 30
0.0
  9
$USERI1
 70
     0
  9
$USERI2
 70
     0
  9
$USERI3
 70
     0
  9
$USERI4
 70
     0
  9
$USERI5
 70
     0
  9
$USERR1
 40
0.0
  9
$USERR2
 40
0.0
  9
$USERR3
 40
0.0
  9
$USERR4
 40
0.0
  9
$USERR5
 40
0.0
  9
$WORLDVIEW
 70
     1
  9
$SHADEDGE
 70
     3
  9
$SHADEDIF
 70
    70
  9
$TILEMODE
 70
     1
  9
$MAXACTVP
 70
    16
  9
$PINSBASE
 10
0.0
 20
0.0
 30
0.0
  9
$PLIMCHECK
 70
     0
  9
$PEXTMIN
 10
1.000000E+20
 20
1.000000E+20
 30
1.000000E+20
  9
$PEXTMAX
 10
-1.000000E+20
 20
-1.000000E+20
 30
-1.000000E+20
  9
$PLIMMIN
 10
0.0
 20
0.0
  9
$PLIMMAX
 10
12.0
 20
9.0
  9
$UNITMODE
 70
     0
  9
$VISRETAIN
 70
     0
  9
$PLINEGEN
 70
     0
  9
$PSLTSCALE
 70
     0
  9
$TREEDEPTH
 70
  3020
  9
$DWGCODEPAGE
  3
iso8859-1
  0
ENDSEC
  0
SECTION
  2
TABLES
  0
TABLE
  2
VPORT
 70
     2
  0
VPORT
  2
*ACTIVE
 70
     0
 10
0.0
 20
0.0
 11
1.0
 21
1.0
 12
230.948977
 22
223.597292
 13
0.0
 23
0.0
 14
1.0
 24
1.0
 15
10.0
 25
10.0
 16
0.0
 26
0.0
 36
1.0
 17
0.0
 27
0.0
 37
0.0
 40
14.85
 41
1.611024
 42
50.0
 43
0.0
 44
0.0
 50
0.0
 51
0.0
 71
     0
 72
   100
 73
     1
 74
     0
 75
     0
 76
     0
 77
     0
 78
     0
  0
ENDTAB
  0
TABLE
  2
LTYPE
 70
     1
  0
LTYPE
  2
CONTINUOUS
 70
    64
  3
Solid Line
 72
    65
 73
     0
 40
0.0
  0
ENDTAB
  0
TABLE
  2
LAYER
 70
     5
  0
LAYER
  2
0
 70
    64
 62
     7
  6
CONTINUOUS
  0
LAYER
  2
SECCIO
 70
    64
 62
     7
  6
CONTINUOUS
  0
LAYER
  2
MESURA
 70
    64
 62
     7
  6
CONTINUOUS
  0
LAYER
  2
TEXTEP
 70
    64
 62
     7
  6
CONTINUOUS
  0
LAYER
  2
TEXTEG
 70
    64
 62
     7
  6
CONTINUOUS
  0
ENDTAB
  0
TABLE
  2
STYLE
 70
     2
  0
STYLE
  2
STANDARD
 70
    64
 40
0.0
 41
1.0
 50
0.0
 71
     0
 42
0.1
  3
txt
  4

  0
STYLE
  2
ROMANC
 70
    64
 40
0.0
 41
1.0
 50
0.0
 71
     0
 42
0.1
  3
romanc
  4

  0
ENDTAB
  0
TABLE
  2
VIEW
 70
     0
  0
ENDTAB
  0
TABLE
  2
UCS
 70
     0
  0
ENDTAB
  0
TABLE
  2
APPID
 70
     1
  0
APPID
  2
ACAD
 70
    64
  0
ENDTAB
  0
TABLE
  2
DIMSTYLE
 70
     0
  0
ENDTAB
  0
ENDSEC
  0
SECTION
  2
BLOCKS
  0
ENDSEC
  0
SECTION
  2
ENTITIES
  0
LINE
  8
0
 10
218.987126
 20
231.022292
 30
0.0
 11
229.487126
 21
231.022292
 31
0.0
  0
LINE
  8
0
 10
218.987126
 20
216.172292
 30
0.0
 11
229.487126
 21
216.172292
 31
0.0
  0
LINE
  8
0
 10
218.987126
 20
231.022292
 30
0.0
 11
218.987126
 21
216.172292
 31
0.0
  0
LINE
  8
0
 10
229.487126
 20
231.022292
 30
0.0
 11
229.487126
 21
216.172292
 31
0.0
  0
TEXT
  8
0
 10
220.931132
 20
227.210164
 30
0.0
 40
0.3
  1
P = 75.7 dm
  7
ROMANC
  0
TEXT
  8
MESURA
 10
226.026411
 20
223.361161
 30
0.0
 40
0.1
  1
1.7
  0
LINE
  8
SECCIO
 10
225.965102
 20
224.595339
 30
0.0
 11
225.965102
 21
222.425758
 31
0.0
  0
TEXT
  8
TEXTEP
 10
226.01393
 20
224.290197
 30
0.0
 40
0.1
  1
0.3
  0
TEXT
  8
TEXTEP
 10
225.086205
 20
224.758349
 30
0.0
 40
0.1
  1
0.5
  0
LINE
  8
MESURA
 10
224.965102
 20
224.520599
 30
0.0
 11
224.965102
 21
224.804912
 31
0.0
  0
LINE
  8
MESURA
 10
225.465102
 20
224.220599
 30
0.0
 11
225.465102
 21
224.804912
 31
0.0
  0
LINE
  8
MESURA
 10
224.919819
 20
224.691447
 30
0.0
 11
225.003209
 21
224.752057
 31
0.0
  0
LINE
  8
MESURA
 10
225.42156
 20
224.687904
 30
0.0
 11
225.50495
 21
224.748514
 31
0.0
  0
LINE
  8
SECCIO
 10
224.867786
 20
224.722781
 30
0.0
 11
225.541518
 21
224.722781
 31
0.0
  0
LINE
  8
SECCIO
 10
223.393275
 20
222.020599
 30
0.0
 11
225.577377
 21
222.020599
 31
0.0
  0
LINE
  8
MESURA
 10
225.92942
 20
222.492938
 30
0.0
 11
226.01281
 21
222.553548
 31
0.0
  0
LINE
  8
MESURA
 10
225.465102
 20
222.520599
 30
0.0
 11
226.722009
 21
222.520599
 31
0.0
  0
LINE
  8
MESURA
 10
224.965102
 20
224.520599
 30
0.0
 11
226.722009
 21
224.520599
 31
0.0
  0
LINE
  8
MESURA
 10
225.465102
 20
224.220599
 30
0.0
 11
226.048719
 21
224.220599
 31
0.0
  0
LINE
  8
MESURA
 10
225.922359
 20
224.189791
 30
0.0
 11
226.005749
 21
224.250401
 31
0.0
  0
LINE
  8
MESURA
 10
225.924349
 20
224.488841
 30
0.0
 11
226.007739
 21
224.549451
 31
0.0
  0
TEXT
  8
TEXTEP
 10
224.511208
 20
221.839282
 30
0.0
 40
0.1
  1
2.0
  0
LINE
  8
MESURA
 10
223.465102
 20
222.520599
 30
0.0
 11
223.465102
 21
221.939451
 31
0.0
  0
LINE
  8
MESURA
 10
223.418738
 20
221.985571
 30
0.0
 11
223.502128
 21
222.046181
 31
0.0
  0
LINE
  8
MESURA
 10
225.465102
 20
222.520599
 30
0.0
 11
225.465102
 21
221.922652
 31
0.0
  0
LINE
  8
MESURA
 10
225.415277
 20
221.987156
 30
0.0
 11
225.498667
 21
222.047765
 31
0.0
  0
TEXT
  8
0
 10
220.93396
 20
227.883662
 30
0.0
 40
0.3
  1
S = 385  dm
  7
ROMANC
  0
TEXT
  8
TEXTEG
 10
220.980023
 20
228.658202
 30
0.0
 40
0.3
  1
ESCALA    1:50
  0
TEXT
  8
TEXTEG
 10
220.929918
 20
229.442517
 30
0.0
 40
0.3
  1
TIPUS    NT385
  0
TEXT
  8
0
 10
224.441792
 20
228.189578
 30
0.0
 40
0.1
  1
2
  7
ROMANC
  0
LINE
  8
0
 10
226.722009
 20
224.520599
 30
0.0
 11
226.722009
 21
222.520599
 31
0.0
  0
LINE
  8
MESURA
 10
226.686328
 20
222.494665
 30
0.0
 11
226.769718
 21
222.555275
 31
0.0
  0
LINE
  8
MESURA
 10
226.686328
 20
224.494665
 30
0.0
 11
226.769718
 21
224.555275
 31
0.0
  0
TEXT
  8
TEXTEP
 10
226.878687
 20
223.558766
 30
0.0
 40
0.1
  1
2.0
  0
LINE
  8
SECCIO
 10
223.962332
 20
224.530599
 30
0.0
 11
224.967872
 21
224.530599
 31
0.0
  0
LINE
  8
SECCIO
 10
224.967872
 20
224.530599
 30
0.0
 11
225.475102
 21
224.226261
 31
0.0
  0
LINE
  8
SECCIO
 10
225.475102
 20
224.226261
 30
0.0
 11
225.475102
 21
222.510599
 31
0.0
  0
LINE
  8
SECCIO
 10
225.475102
 20
222.510599
 30
0.0
 11
223.455102
 21
222.510599
 31
0.0
  0
LINE
  8
SECCIO
 10
223.455102
 20
222.510599
 30
0.0
 11
223.455102
 21
224.226261
 31
0.0
  0
LINE
  8
SECCIO
 10
223.455102
 20
224.226261
 30
0.0
 11
223.962332
 21
224.530599
 31
0.0
  0
LINE
  8
SECCIO
 10
223.967872
 20
224.510599
 30
0.0
 11
224.962332
 21
224.510599
 31
0.0
  0
LINE
  8
SECCIO
 10
224.962332
 20
224.510599
 30
0.0
 11
225.455102
 21
224.214938
 31
0.0
  0
LINE
  8
SECCIO
 10
225.455102
 20
224.214938
 30
0.0
 11
225.455102
 21
222.530599
 31
0.0
  0
LINE
  8
SECCIO
 10
225.455102
 20
222.530599
 30
0.0
 11
223.475102
 21
222.530599
 31
0.0
  0
LINE
  8
SECCIO
 10
223.475102
 20
222.530599
 30
0.0
 11
223.475102
 21
224.214938
 31
0.0
  0
LINE
  8
SECCIO
 10
223.475102
 20
224.214938
 30
0.0
 11
223.967872
 21
224.510599
 31
0.0
  0
LINE
  8
SECCIO
 10
223.965102
 20
224.520599
 30
0.0
 11
224.965102
 21
224.520599
 31
0.0
  0
LINE
  8
SECCIO
 10
224.965102
 20
224.520599
 30
0.0
 11
225.465102
 21
224.220599
 31
0.0
  0
LINE
  8
SECCIO
 10
225.465102
 20
224.220599
 30
0.0
 11
225.465102
 21
222.520599
 31
0.0
  0
LINE
  8
SECCIO
 10
225.465102
 20
222.520599
 30
0.0
 11
223.465102
 21
222.520599
 31
0.0
  0
LINE
  8
SECCIO
 10
223.465102
 20
222.520599
 30
0.0
 11
223.465102
 21
224.220599
 31
0.0
  0
LINE
  8
SECCIO
 10
223.465102
 20
224.220599
 30
0.0
 11
223.965102
 21
224.520599
 31
0.0
  0
ENDSEC
  0
EOF
