  0
SECTION
  2
HEADER
  9
$ACADVER
  1
AC1014
  9
$ACADMAINTVER
 70
     9
  9
$DWGCODEPAGE
  3
ANSI_1252
  9
$INSBASE
 10
105.4640269999999
 20
-4.528761
 30
0.0
  9
$EXTMIN
 10
281.3870252079646
 20
29.87977670398516
 30
-0.0000000349181948
  9
$EXTMAX
 10
291.8972786491472
 20
44.76930275439428
 30
0.0000000814935747
  9
$LIMMIN
 10
0.0
 20
0.0
  9
$LIMMAX
 10
410.0
 20
287.0
  9
$ORTHOMODE
 70
     1
  9
$REGENMODE
 70
     1
  9
$FILLMODE
 70
     1
  9
$QTEXTMODE
 70
     0
  9
$MIRRTEXT
 70
     1
  9
$DRAGMODE
 70
     2
  9
$LTSCALE
 40
25.0
  9
$OSMODE
 70
    37
  9
$ATTMODE
 70
     1
  9
$TEXTSIZE
 40
0.1
  9
$TRACEWID
 40
1.0
  9
$TEXTSTYLE
  7
ROMANC
  9
$CLAYER
  8
0
  9
$CELTYPE
  6
BYLAYER
  9
$CECOLOR
 62
   256
  9
$CELTSCALE
 40
1.0
  9
$DELOBJ
 70
     1
  9
$DISPSILH
 70
     0
  9
$DIMSCALE
 40
1.5
  9
$DIMASZ
 40
0.1
  9
$DIMEXO
 40
0.01
  9
$DIMDLI
 40
7.0
  9
$DIMRND
 40
0.0
  9
$DIMDLE
 40
0.0
  9
$DIMEXE
 40
0.01
  9
$DIMTP
 40
0.0
  9
$DIMTM
 40
0.0
  9
$DIMTXT
 40
0.05
  9
$DIMCEN
 40
0.1
  9
$DIMTSZ
 40
0.0
  9
$DIMTOL
 70
     0
  9
$DIMLIM
 70
     0
  9
$DIMTIH
 70
     0
  9
$DIMTOH
 70
     0
  9
$DIMSE1
 70
     0
  9
$DIMSE2
 70
     0
  9
$DIMTAD
 70
     1
  9
$DIMZIN
 70
     0
  9
$DIMBLK
  1

  9
$DIMASO
 70
     1
  9
$DIMSHO
 70
     0
  9
$DIMPOST
  1

  9
$DIMAPOST
  1

  9
$DIMALT
 70
     0
  9
$DIMALTD
 70
     2
  9
$DIMALTF
 40
25.4
  9
$DIMLFAC
 40
1.0
  9
$DIMTOFL
 70
     1
  9
$DIMTVP
 40
0.0
  9
$DIMTIX
 70
     1
  9
$DIMSOXD
 70
     0
  9
$DIMSAH
 70
     0
  9
$DIMBLK1
  1

  9
$DIMBLK2
  1

  9
$DIMSTYLE
  2
SILVIA
  9
$DIMCLRD
 70
     0
  9
$DIMCLRE
 70
     0
  9
$DIMCLRT
 70
     0
  9
$DIMTFAC
 40
70.0
  9
$DIMGAP
 40
0.09
  9
$DIMJUST
 70
     0
  9
$DIMSD1
 70
     0
  9
$DIMSD2
 70
     0
  9
$DIMTOLJ
 70
     1
  9
$DIMTZIN
 70
     0
  9
$DIMALTZ
 70
     0
  9
$DIMALTTZ
 70
     0
  9
$DIMFIT
 70
     3
  9
$DIMUPT
 70
     0
  9
$DIMUNIT
 70
     2
  9
$DIMDEC
 70
     4
  9
$DIMTDEC
 70
     4
  9
$DIMALTU
 70
     2
  9
$DIMALTTD
 70
     2
  9
$DIMTXSTY
  7
STANDARD
  9
$DIMAUNIT
 70
     0
  9
$LUNITS
 70
     2
  9
$LUPREC
 70
     2
  9
$SKETCHINC
 40
1.0
  9
$FILLETRAD
 40
0.0
  9
$AUNITS
 70
     0
  9
$AUPREC
 70
     0
  9
$MENU
  1
acad
  9
$ELEVATION
 40
0.0
  9
$PELEVATION
 40
0.0
  9
$THICKNESS
 40
0.0
  9
$LIMCHECK
 70
     0
  9
$BLIPMODE
 70
     0
  9
$CHAMFERA
 40
0.0
  9
$CHAMFERB
 40
0.0
  9
$CHAMFERC
 40
0.0
  9
$CHAMFERD
 40
0.0
  9
$SKPOLY
 70
     0
  9
$TDCREATE
 40
2450877.742483912
  9
$TDUPDATE
 40
2452409.396389167
  9
$TDINDWG
 40
0.0135627315
  9
$TDUSRTIMER
 40
0.0135625579
  9
$USRTIMER
 70
     1
  9
$ANGBASE
 50
0.0
  9
$ANGDIR
 70
     0
  9
$PDMODE
 70
     0
  9
$PDSIZE
 40
0.0
  9
$PLINEWID
 40
0.0
  9
$COORDS
 70
     1
  9
$SPLFRAME
 70
     0
  9
$SPLINETYPE
 70
     6
  9
$SPLINESEGS
 70
     8
  9
$ATTDIA
 70
     0
  9
$ATTREQ
 70
     1
  9
$HANDLING
 70
 10241
  9
$HANDSEED
  5
105
  9
$SURFTAB1
 70
     6
  9
$SURFTAB2
 70
     6
  9
$SURFTYPE
 70
     6
  9
$SURFU
 70
     6
  9
$SURFV
 70
     6
  9
$UCSNAME
  2

  9
$UCSORG
 10
0.0
 20
0.0
 30
0.0
  9
$UCSXDIR
 10
1.0
 20
0.0
 30
0.0
  9
$UCSYDIR
 10
0.0
 20
1.0
 30
0.0
  9
$PUCSNAME
  2

  9
$PUCSORG
 10
0.0
 20
0.0
 30
0.0
  9
$PUCSXDIR
 10
1.0
 20
0.0
 30
0.0
  9
$PUCSYDIR
 10
0.0
 20
1.0
 30
0.0
  9
$USERI1
 70
     0
  9
$USERI2
 70
     0
  9
$USERI3
 70
     0
  9
$USERI4
 70
     0
  9
$USERI5
 70
     0
  9
$USERR1
 40
0.0
  9
$USERR2
 40
0.0
  9
$USERR3
 40
0.0
  9
$USERR4
 40
0.0
  9
$USERR5
 40
0.0
  9
$WORLDVIEW
 70
     1
  9
$SHADEDGE
 70
     3
  9
$SHADEDIF
 70
    70
  9
$TILEMODE
 70
     1
  9
$MAXACTVP
 70
    16
  9
$PINSBASE
 10
0.0
 20
0.0
 30
0.0
  9
$PLIMCHECK
 70
     0
  9
$PEXTMIN
 10
1.000000000000000E+20
 20
1.000000000000000E+20
 30
1.000000000000000E+20
  9
$PEXTMAX
 10
-1.000000000000000E+20
 20
-1.000000000000000E+20
 30
-1.000000000000000E+20
  9
$PLIMMIN
 10
0.0
 20
0.0
  9
$PLIMMAX
 10
12.0
 20
9.0
  9
$UNITMODE
 70
     0
  9
$VISRETAIN
 70
     0
  9
$PLINEGEN
 70
     0
  9
$PSLTSCALE
 70
     0
  9
$TREEDEPTH
 70
  3020
  9
$PICKSTYLE
 70
     1
  9
$CMLSTYLE
  2
STANDARD
  9
$CMLJUST
 70
     0
  9
$CMLSCALE
 40
1.0
  9
$PROXYGRAPHICS
 70
     1
  9
$MEASUREMENT
 70
     0
  0
ENDSEC
  0
SECTION
  2
CLASSES
  0
CLASS
  1
ACDBDICTIONARYWDFLT
  2
AcDbDictionaryWithDefault
  3
AutoCAD 2000
 90
        0
280
     0
281
     0
  0
CLASS
  1
ACDBPLACEHOLDER
  2
AcDbPlaceHolder
  3
AutoCAD 2000
 90
        0
280
     0
281
     0
  0
CLASS
  1
LAYOUT
  2
AcDbLayout
  3
AutoCAD 2000
 90
        0
280
     0
281
     0
  0
CLASS
  1
LONG_TRANSACTION
  2
AcDbLongTransaction
  3
AutoCAD 2000
 90
        0
280
     0
281
     0
  0
CLASS
  1
LWPOLYLINE
  2
AcDbPolyline
  3
AutoCAD 2000
 90
        0
280
     0
281
     1
  0
CLASS
  1
HATCH
  2
AcDbHatch
  3
AutoCAD 2000
 90
        0
280
     0
281
     1
  0
CLASS
  1
XRECORD
  2
AcDbXrecord
  3
AutoCAD 2000
 90
        0
280
     0
281
     0
  0
CLASS
  1
LONG_TRANSACTION
  2
AcDbLongTransaction
  3
AutoCAD 2000
 90
        0
280
     0
281
     0
  0
CLASS
  1
LWPOLYLINE
  2
AcDbPolyline
  3
AutoCAD 2000
 90
        0
280
     0
281
     1
  0
CLASS
  1
HATCH
  2
AcDbHatch
  3
AutoCAD 2000
 90
        0
280
     0
281
     1
  0
CLASS
  1
XRECORD
  2
AcDbXrecord
  3
AutoCAD 2000
 90
        0
280
     0
281
     0
  0
ENDSEC
  0
SECTION
  2
TABLES
  0
TABLE
  2
VPORT
  5
8
330
0
100
AcDbSymbolTable
 70
     2
  0
VPORT
  5
E2
330
8
100
AcDbSymbolTableRecord
100
AcDbViewportTableRecord
  2
*ACTIVE
 70
     0
 10
0.0
 20
0.0
 11
1.0
 21
1.0
 12
291.6040632701855
 22
37.60449486173568
 13
0.0
 23
0.0
 14
1.0
 24
1.0
 15
10.0
 25
10.0
 16
0.0
 26
0.0
 36
1.0
 17
0.0
 27
0.0
 37
0.0
 40
15.84608923452966
 41
1.508997429305912
 42
50.0
 43
0.0
 44
0.0
 50
0.0
 51
0.0
 71
     0
 72
   100
 73
     1
 74
     0
 75
     0
 76
     0
 77
     0
 78
     1
  0
ENDTAB
  0
TABLE
  2
LTYPE
  5
5
330
0
100
AcDbSymbolTable
 70
     1
  0
LTYPE
  5
13
330
5
100
AcDbSymbolTableRecord
100
AcDbLinetypeTableRecord
  2
BYBLOCK
 70
     0
  3

 72
    65
 73
     0
 40
0.0
  0
LTYPE
  5
14
330
5
100
AcDbSymbolTableRecord
100
AcDbLinetypeTableRecord
  2
BYLAYER
 70
     0
  3

 72
    65
 73
     0
 40
0.0
  0
LTYPE
  5
15
330
5
100
AcDbSymbolTableRecord
100
AcDbLinetypeTableRecord
  2
CONTINUOUS
 70
     0
  3
Solid line
 72
    65
 73
     0
 40
0.0
  0
ENDTAB
  0
TABLE
  2
LAYER
  5
2
330
0
100
AcDbSymbolTable
 70
     4
  0
LAYER
  5
10
330
2
100
AcDbSymbolTableRecord
100
AcDbLayerTableRecord
  2
0
 70
     0
 62
     7
  6
CONTINUOUS
  0
LAYER
  5
24
330
2
100
AcDbSymbolTableRecord
100
AcDbLayerTableRecord
  2
MESURA
 70
     0
 62
     7
  6
CONTINUOUS
  0
LAYER
  5
25
330
2
100
AcDbSymbolTableRecord
100
AcDbLayerTableRecord
  2
DEFPOINTS
 70
     0
 62
     7
  6
CONTINUOUS
  0
LAYER
  5
B5
330
2
100
AcDbSymbolTableRecord
100
AcDbLayerTableRecord
  2
NO_PRINT
 70
     0
 62
     7
  6
CONTINUOUS
  0
ENDTAB
  0
TABLE
  2
STYLE
  5
3
330
0
100
AcDbSymbolTable
 70
     2
  0
STYLE
  5
11
330
3
100
AcDbSymbolTableRecord
100
AcDbTextStyleTableRecord
  2
STANDARD
 70
     0
 40
0.0
 41
1.0
 50
0.0
 71
     0
 42
0.1
  3
txt
  4

  0
STYLE
  5
22
330
3
100
AcDbSymbolTableRecord
100
AcDbTextStyleTableRecord
  2
ROMANC
 70
     0
 40
0.0
 41
1.0
 50
0.0
 71
     0
 42
0.1
  3
romanc
  4

  0
ENDTAB
  0
TABLE
  2
VIEW
  5
6
330
0
100
AcDbSymbolTable
 70
     0
  0
ENDTAB
  0
TABLE
  2
UCS
  5
7
330
0
100
AcDbSymbolTable
 70
     0
  0
ENDTAB
  0
TABLE
  2
APPID
  5
9
330
0
100
AcDbSymbolTable
 70
     1
  0
APPID
  5
12
330
9
100
AcDbSymbolTableRecord
100
AcDbRegAppTableRecord
  2
ACAD
 70
     0
  0
ENDTAB
  0
TABLE
  2
DIMSTYLE
  5
A
330
0
100
AcDbSymbolTable
 70
     1
  0
DIMSTYLE
105
26
330
A
100
AcDbSymbolTableRecord
100
AcDbDimStyleTableRecord
  2
SILVIA
 70
     0
  3

  4

  5

  6

  7

 40
1.5
 41
0.1
 42
0.01
 43
7.0
 44
0.01
 45
0.0
 46
0.0
 47
0.0
 48
0.0
140
0.05
141
0.1
142
0.0
143
25.4
144
1.0
145
0.0
146
70.0
147
0.09
 71
     0
 72
     0
 73
     0
 74
     0
 75
     0
 76
     0
 77
     1
 78
     0
170
     0
171
     2
172
     1
173
     0
174
     1
175
     0
176
     0
177
     0
178
     0
270
     2
271
     2
272
     2
273
     2
274
     2
340
22
275
     0
280
     0
281
     0
282
     0
283
     1
284
     0
285
     0
286
     0
287
     3
288
     0
  0
ENDTAB
  0
TABLE
  2
BLOCK_RECORD
  5
1
330
0
100
AcDbSymbolTable
 70
     8
  0
BLOCK_RECORD
  5
1E
102
{ACAD_XDICTIONARY
360
D9
102
}
330
1
100
AcDbSymbolTableRecord
100
AcDbBlockTableRecord
  2
*MODEL_SPACE
  0
BLOCK_RECORD
  5
1A
102
{ACAD_XDICTIONARY
360
D7
102
}
330
1
100
AcDbSymbolTableRecord
100
AcDbBlockTableRecord
  2
*PAPER_SPACE
  0
BLOCK_RECORD
  5
29
330
1
100
AcDbSymbolTableRecord
100
AcDbBlockTableRecord
  2
*D0
  0
BLOCK_RECORD
  5
37
330
1
100
AcDbSymbolTableRecord
100
AcDbBlockTableRecord
  2
*D1
  0
BLOCK_RECORD
  5
45
330
1
100
AcDbSymbolTableRecord
100
AcDbBlockTableRecord
  2
*D2
  0
BLOCK_RECORD
  5
51
330
1
100
AcDbSymbolTableRecord
100
AcDbBlockTableRecord
  2
*D3
  0
BLOCK_RECORD
  5
5D
330
1
100
AcDbSymbolTableRecord
100
AcDbBlockTableRecord
  2
*D4
  0
BLOCK_RECORD
  5
69
330
1
100
AcDbSymbolTableRecord
100
AcDbBlockTableRecord
  2
*D5
  0
BLOCK_RECORD
  5
75
330
1
100
AcDbSymbolTableRecord
100
AcDbBlockTableRecord
  2
*D6
  0
BLOCK_RECORD
  5
81
330
1
100
AcDbSymbolTableRecord
100
AcDbBlockTableRecord
  2
*D7
  0
ENDTAB
  0
ENDSEC
  0
SECTION
  2
BLOCKS
  0
BLOCK
  5
1F
330
1E
100
AcDbEntity
  8
0
100
AcDbBlockBegin
  2
*MODEL_SPACE
 70
     0
 10
0.0
 20
0.0
 30
0.0
  3
*MODEL_SPACE
  1

  0
ENDBLK
  5
20
330
1E
100
AcDbEntity
  8
0
100
AcDbBlockEnd
  0
BLOCK
  5
1B
330
1A
100
AcDbEntity
 67
     1
  8
0
100
AcDbBlockBegin
  2
*PAPER_SPACE
 70
     0
 10
0.0
 20
0.0
 30
0.0
  3
*PAPER_SPACE
  1

  0
ENDBLK
  5
1C
330
1A
100
AcDbEntity
 67
     1
  8
0
100
AcDbBlockEnd
  0
BLOCK
  5
2A
330
29
100
AcDbEntity
  8
0
100
AcDbBlockBegin
  2
*D0
 70
     1
 10
0.0
 20
0.0
 30
0.0
  3
*D0
  1

  0
LINE
  5
2B
330
29
100
AcDbEntity
  8
0
  6
BYBLOCK
 62
     0
100
AcDbLine
 10
284.952049
 20
35.091651
 30
0.0
 11
284.952049
 21
34.411458
 31
0.0
  0
LINE
  5
2C
330
29
100
AcDbEntity
  8
0
  6
BYBLOCK
 62
     0
100
AcDbLine
 10
284.302049
 20
35.091651
 30
0.0
 11
284.302049
 21
34.411458
 31
0.0
  0
LINE
  5
2D
330
29
100
AcDbEntity
  8
0
  6
BYBLOCK
 62
     0
100
AcDbLine
 10
285.102049
 20
34.426458
 30
0.0
 11
285.2520489999998
 21
34.426458
 31
0.0
  0
LINE
  5
2E
330
29
100
AcDbEntity
  8
0
  6
BYBLOCK
 62
     0
100
AcDbLine
 10
284.152049
 20
34.426458
 30
0.0
 11
284.002049
 21
34.426458
 31
0.0
  0
SOLID
  5
2F
330
29
100
AcDbEntity
  8
0
  6
BYBLOCK
 62
     0
100
AcDbTrace
 10
285.102049
 20
34.451458
 30
0.0
 11
285.102049
 21
34.40145799999999
 31
0.0
 12
284.952049
 22
34.426458
 32
0.0
 13
284.952049
 23
34.426458
 33
0.0
  0
SOLID
  5
30
330
29
100
AcDbEntity
  8
0
  6
BYBLOCK
 62
     0
100
AcDbTrace
 10
284.152049
 20
34.451458
 30
0.0
 11
284.152049
 21
34.40145799999999
 31
0.0
 12
284.302049
 22
34.426458
 32
0.0
 13
284.302049
 23
34.426458
 33
0.0
  0
LINE
  5
31
330
29
100
AcDbEntity
  8
0
  6
BYBLOCK
 62
     0
100
AcDbLine
 10
284.952049
 20
34.426458
 30
0.0
 11
284.302049
 21
34.426458
 31
0.0
  0
TEXT
  5
32
330
29
100
AcDbEntity
  8
0
  6
BYBLOCK
 62
     0
100
AcDbText
 10
284.5020489999999
 20
34.46395799999999
 30
0.0
 40
0.075
  1
0.65
  7
ROMANC
 72
     1
 11
284.627049
 21
34.501458
 31
0.0
100
AcDbText
 73
     2
  0
POINT
  5
33
330
29
100
AcDbEntity
  8
DEFPOINTS
  6
BYBLOCK
 62
     0
100
AcDbPoint
 10
284.952049
 20
35.106651
 30
0.0
  0
POINT
  5
34
330
29
100
AcDbEntity
  8
DEFPOINTS
  6
BYBLOCK
 62
     0
100
AcDbPoint
 10
284.302049
 20
35.106651
 30
0.0
  0
POINT
  5
35
330
29
100
AcDbEntity
  8
DEFPOINTS
  6
BYBLOCK
 62
     0
100
AcDbPoint
 10
284.302049
 20
34.426458
 30
0.0
  0
ENDBLK
  5
36
330
29
100
AcDbEntity
  8
0
100
AcDbBlockEnd
  0
BLOCK
  5
38
330
37
100
AcDbEntity
  8
0
100
AcDbBlockBegin
  2
*D1
 70
     1
 10
0.0
 20
0.0
 30
0.0
  3
*D1
  1

  0
LINE
  5
39
330
37
100
AcDbEntity
  8
0
  6
BYBLOCK
 62
     0
100
AcDbLine
 10
284.937049
 20
34.806651
 30
0.0
 11
283.997732
 21
34.806651
 31
0.0
  0
LINE
  5
3A
330
37
100
AcDbEntity
  8
0
  6
BYBLOCK
 62
     0
100
AcDbLine
 10
284.937049
 20
35.106651
 30
0.0
 11
283.997732
 21
35.106651
 31
0.0
  0
LINE
  5
3B
330
37
100
AcDbEntity
  8
0
  6
BYBLOCK
 62
     0
100
AcDbLine
 10
284.0127319999998
 20
34.656651
 30
0.0
 11
284.0127319999998
 21
34.506651
 31
0.0
  0
LINE
  5
3C
330
37
100
AcDbEntity
  8
0
  6
BYBLOCK
 62
     0
100
AcDbLine
 10
284.0127319999998
 20
35.25665099999999
 30
0.0
 11
284.0127319999998
 21
35.406651
 31
0.0
  0
SOLID
  5
3D
330
37
100
AcDbEntity
  8
0
  6
BYBLOCK
 62
     0
100
AcDbTrace
 10
283.9877319999999
 20
34.656651
 30
0.0
 11
284.0377319999999
 21
34.656651
 31
0.0
 12
284.0127319999998
 22
34.806651
 32
0.0
 13
284.0127319999998
 23
34.806651
 33
0.0
  0
SOLID
  5
3E
330
37
100
AcDbEntity
  8
0
  6
BYBLOCK
 62
     0
100
AcDbTrace
 10
283.9877319999999
 20
35.25665099999999
 30
0.0
 11
284.0377319999999
 21
35.25665099999999
 31
0.0
 12
284.0127319999998
 22
35.106651
 32
0.0
 13
284.0127319999998
 23
35.106651
 33
0.0
  0
LINE
  5
3F
330
37
100
AcDbEntity
  8
0
  6
BYBLOCK
 62
     0
100
AcDbLine
 10
284.0127319999998
 20
34.806651
 30
0.0
 11
284.0127319999998
 21
35.106651
 31
0.0
  0
TEXT
  5
40
330
37
100
AcDbEntity
  8
0
  6
BYBLOCK
 62
     0
100
AcDbText
 10
283.975232
 20
34.831651
 30
0.0
 40
0.075
  1
0.30
 50
90.0
  7
ROMANC
 72
     1
 11
283.937732
 21
34.956651
 31
0.0
100
AcDbText
 73
     2
  0
POINT
  5
41
330
37
100
AcDbEntity
  8
DEFPOINTS
  6
BYBLOCK
 62
     0
100
AcDbPoint
 10
284.952049
 20
34.806651
 30
0.0
  0
POINT
  5
42
330
37
100
AcDbEntity
  8
DEFPOINTS
  6
BYBLOCK
 62
     0
100
AcDbPoint
 10
284.952049
 20
35.106651
 30
0.0
  0
POINT
  5
43
330
37
100
AcDbEntity
  8
DEFPOINTS
  6
BYBLOCK
 62
     0
100
AcDbPoint
 10
284.0127319999998
 20
35.106651
 30
0.0
  0
ENDBLK
  5
44
330
37
100
AcDbEntity
  8
0
100
AcDbBlockEnd
  0
BLOCK
  5
46
330
45
100
AcDbEntity
  8
0
100
AcDbBlockBegin
  2
*D2
 70
     1
 10
0.0
 20
0.0
 30
0.0
  3
*D2
  1

  0
LINE
  5
47
330
45
100
AcDbEntity
  8
0
  6
BYBLOCK
 62
     0
100
AcDbLine
 10
284.937049
 20
34.806651
 30
0.0
 11
283.724245
 21
34.806651
 31
0.0
  0
LINE
  5
48
330
45
100
AcDbEntity
  8
0
  6
BYBLOCK
 62
     0
100
AcDbLine
 10
284.287049
 20
37.456651
 30
0.0
 11
283.724245
 21
37.456651
 31
0.0
  0
LINE
  5
49
330
45
100
AcDbEntity
  8
0
  6
BYBLOCK
 62
     0
100
AcDbLine
 10
283.739245
 20
34.956651
 30
0.0
 11
283.739245
 21
37.306651
 31
0.0
  0
SOLID
  5
4A
330
45
100
AcDbEntity
  8
0
  6
BYBLOCK
 62
     0
100
AcDbTrace
 10
283.7142449999999
 20
34.956651
 30
0.0
 11
283.764245
 21
34.956651
 31
0.0
 12
283.739245
 22
34.806651
 32
0.0
 13
283.739245
 23
34.806651
 33
0.0
  0
SOLID
  5
4B
330
45
100
AcDbEntity
  8
0
  6
BYBLOCK
 62
     0
100
AcDbTrace
 10
283.7142449999999
 20
37.306651
 30
0.0
 11
283.764245
 21
37.306651
 31
0.0
 12
283.739245
 22
37.456651
 32
0.0
 13
283.739245
 23
37.456651
 33
0.0
  0
TEXT
  5
4C
330
45
100
AcDbEntity
  8
0
  6
BYBLOCK
 62
     0
100
AcDbText
 10
283.7017449999999
 20
36.00665099999999
 30
0.0
 40
0.075
  1
2.65
 50
90.0
  7
ROMANC
 72
     1
 11
283.6642449999999
 21
36.13165099999999
 31
0.0
100
AcDbText
 73
     2
  0
POINT
  5
4D
330
45
100
AcDbEntity
  8
DEFPOINTS
  6
BYBLOCK
 62
     0
100
AcDbPoint
 10
284.952049
 20
34.806651
 30
0.0
  0
POINT
  5
4E
330
45
100
AcDbEntity
  8
DEFPOINTS
  6
BYBLOCK
 62
     0
100
AcDbPoint
 10
284.302049
 20
37.456651
 30
0.0
  0
POINT
  5
4F
330
45
100
AcDbEntity
  8
DEFPOINTS
  6
BYBLOCK
 62
     0
100
AcDbPoint
 10
283.739245
 20
37.456651
 30
0.0
  0
ENDBLK
  5
50
330
45
100
AcDbEntity
  8
0
100
AcDbBlockEnd
  0
BLOCK
  5
52
330
51
100
AcDbEntity
  8
0
100
AcDbBlockBegin
  2
*D3
 70
     1
 10
0.0
 20
0.0
 30
0.0
  3
*D3
  1

  0
LINE
  5
53
330
51
100
AcDbEntity
  8
0
  6
BYBLOCK
 62
     0
100
AcDbLine
 10
284.287049
 20
35.106651
 30
0.0
 11
283.997732
 21
35.106651
 31
0.0
  0
LINE
  5
54
330
51
100
AcDbEntity
  8
0
  6
BYBLOCK
 62
     0
100
AcDbLine
 10
284.287049
 20
37.456651
 30
0.0
 11
283.997732
 21
37.456651
 31
0.0
  0
LINE
  5
55
330
51
100
AcDbEntity
  8
0
  6
BYBLOCK
 62
     0
100
AcDbLine
 10
284.0127319999998
 20
35.25665099999999
 30
0.0
 11
284.0127319999998
 21
37.306651
 31
0.0
  0
SOLID
  5
56
330
51
100
AcDbEntity
  8
0
  6
BYBLOCK
 62
     0
100
AcDbTrace
 10
283.9877319999999
 20
35.25665099999999
 30
0.0
 11
284.0377319999999
 21
35.25665099999999
 31
0.0
 12
284.0127319999998
 22
35.106651
 32
0.0
 13
284.0127319999998
 23
35.106651
 33
0.0
  0
SOLID
  5
57
330
51
100
AcDbEntity
  8
0
  6
BYBLOCK
 62
     0
100
AcDbTrace
 10
283.9877319999999
 20
37.306651
 30
0.0
 11
284.0377319999999
 21
37.306651
 31
0.0
 12
284.0127319999998
 22
37.456651
 32
0.0
 13
284.0127319999998
 23
37.456651
 33
0.0
  0
TEXT
  5
58
330
51
100
AcDbEntity
  8
0
  6
BYBLOCK
 62
     0
100
AcDbText
 10
283.975232
 20
36.156651
 30
0.0
 40
0.075
  1
2.35
 50
90.0
  7
ROMANC
 72
     1
 11
283.937732
 21
36.281651
 31
0.0
100
AcDbText
 73
     2
  0
POINT
  5
59
330
51
100
AcDbEntity
  8
DEFPOINTS
  6
BYBLOCK
 62
     0
100
AcDbPoint
 10
284.302049
 20
35.106651
 30
0.0
  0
POINT
  5
5A
330
51
100
AcDbEntity
  8
DEFPOINTS
  6
BYBLOCK
 62
     0
100
AcDbPoint
 10
284.302049
 20
37.456651
 30
0.0
  0
POINT
  5
5B
330
51
100
AcDbEntity
  8
DEFPOINTS
  6
BYBLOCK
 62
     0
100
AcDbPoint
 10
284.0127319999998
 20
37.456651
 30
0.0
  0
ENDBLK
  5
5C
330
51
100
AcDbEntity
  8
0
100
AcDbBlockEnd
  0
BLOCK
  5
5E
330
5D
100
AcDbEntity
  8
0
100
AcDbBlockBegin
  2
*D4
 70
     1
 10
0.0
 20
0.0
 30
0.0
  3
*D4
  1

  0
LINE
  5
5F
330
5D
100
AcDbEntity
  8
0
  6
BYBLOCK
 62
     0
100
AcDbLine
 10
284.302049
 20
35.091651
 30
0.0
 11
284.302049
 21
34.056117
 31
0.0
  0
LINE
  5
60
330
5D
100
AcDbEntity
  8
0
  6
BYBLOCK
 62
     0
100
AcDbLine
 10
287.302049
 20
35.091651
 30
0.0
 11
287.302049
 21
34.056117
 31
0.0
  0
LINE
  5
61
330
5D
100
AcDbEntity
  8
0
  6
BYBLOCK
 62
     0
100
AcDbLine
 10
284.452049
 20
34.071117
 30
0.0
 11
287.152049
 21
34.071117
 31
0.0
  0
SOLID
  5
62
330
5D
100
AcDbEntity
  8
0
  6
BYBLOCK
 62
     0
100
AcDbTrace
 10
284.452049
 20
34.096117
 30
0.0
 11
284.452049
 21
34.04611699999998
 31
0.0
 12
284.302049
 22
34.071117
 32
0.0
 13
284.302049
 23
34.071117
 33
0.0
  0
SOLID
  5
63
330
5D
100
AcDbEntity
  8
0
  6
BYBLOCK
 62
     0
100
AcDbTrace
 10
287.152049
 20
34.096117
 30
0.0
 11
287.152049
 21
34.04611699999998
 31
0.0
 12
287.302049
 22
34.071117
 32
0.0
 13
287.302049
 23
34.071117
 33
0.0
  0
TEXT
  5
64
330
5D
100
AcDbEntity
  8
0
  6
BYBLOCK
 62
     0
100
AcDbText
 10
285.677049
 20
34.10861699999999
 30
0.0
 40
0.075
  1
3.00
  7
ROMANC
 72
     1
 11
285.802049
 21
34.146117
 31
0.0
100
AcDbText
 73
     2
  0
POINT
  5
65
330
5D
100
AcDbEntity
  8
DEFPOINTS
  6
BYBLOCK
 62
     0
100
AcDbPoint
 10
284.302049
 20
35.106651
 30
0.0
  0
POINT
  5
66
330
5D
100
AcDbEntity
  8
DEFPOINTS
  6
BYBLOCK
 62
     0
100
AcDbPoint
 10
287.302049
 20
35.106651
 30
0.0
  0
POINT
  5
67
330
5D
100
AcDbEntity
  8
DEFPOINTS
  6
BYBLOCK
 62
     0
100
AcDbPoint
 10
287.302049
 20
34.071117
 30
0.0
  0
ENDBLK
  5
68
330
5D
100
AcDbEntity
  8
0
100
AcDbBlockEnd
  0
BLOCK
  5
6A
330
69
100
AcDbEntity
  8
0
100
AcDbBlockBegin
  2
*D5
 70
     1
 10
0.0
 20
0.0
 30
0.0
  3
*D5
  1

  0
LINE
  5
6B
330
69
100
AcDbEntity
  8
0
  6
BYBLOCK
 62
     0
100
AcDbLine
 10
284.952049
 20
34.791651
 30
0.0
 11
284.952049
 21
34.411458
 31
0.0
  0
LINE
  5
6C
330
69
100
AcDbEntity
  8
0
  6
BYBLOCK
 62
     0
100
AcDbLine
 10
287.302049
 20
34.791651
 30
0.0
 11
287.302049
 21
34.411458
 31
0.0
  0
LINE
  5
6D
330
69
100
AcDbEntity
  8
0
  6
BYBLOCK
 62
     0
100
AcDbLine
 10
285.102049
 20
34.426458
 30
0.0
 11
287.152049
 21
34.426458
 31
0.0
  0
SOLID
  5
6E
330
69
100
AcDbEntity
  8
0
  6
BYBLOCK
 62
     0
100
AcDbTrace
 10
285.102049
 20
34.451458
 30
0.0
 11
285.102049
 21
34.40145799999999
 31
0.0
 12
284.952049
 22
34.426458
 32
0.0
 13
284.952049
 23
34.426458
 33
0.0
  0
SOLID
  5
6F
330
69
100
AcDbEntity
  8
0
  6
BYBLOCK
 62
     0
100
AcDbTrace
 10
287.152049
 20
34.451458
 30
0.0
 11
287.152049
 21
34.40145799999999
 31
0.0
 12
287.302049
 22
34.426458
 32
0.0
 13
287.302049
 23
34.426458
 33
0.0
  0
TEXT
  5
70
330
69
100
AcDbEntity
  8
0
  6
BYBLOCK
 62
     0
100
AcDbText
 10
286.0020489999998
 20
34.46395799999999
 30
0.0
 40
0.075
  1
2.35
  7
ROMANC
 72
     1
 11
286.1270489999999
 21
34.501458
 31
0.0
100
AcDbText
 73
     2
  0
POINT
  5
71
330
69
100
AcDbEntity
  8
DEFPOINTS
  6
BYBLOCK
 62
     0
100
AcDbPoint
 10
284.952049
 20
34.806651
 30
0.0
  0
POINT
  5
72
330
69
100
AcDbEntity
  8
DEFPOINTS
  6
BYBLOCK
 62
     0
100
AcDbPoint
 10
287.302049
 20
34.806651
 30
0.0
  0
POINT
  5
73
330
69
100
AcDbEntity
  8
DEFPOINTS
  6
BYBLOCK
 62
     0
100
AcDbPoint
 10
287.302049
 20
34.426458
 30
0.0
  0
ENDBLK
  5
74
330
69
100
AcDbEntity
  8
0
100
AcDbBlockEnd
  0
BLOCK
  5
76
330
75
100
AcDbEntity
  8
0
100
AcDbBlockBegin
  2
*D6
 70
     1
 10
0.0
 20
0.0
 30
0.0
  3
*D6
  1

  0
LINE
  5
77
330
75
100
AcDbEntity
  8
0
  6
BYBLOCK
 62
     0
100
AcDbLine
 10
286.6949319999998
 20
34.57984699999999
 30
0.0
 11
286.6949319999998
 21
34.286392
 31
0.0
  0
LINE
  5
78
330
75
100
AcDbEntity
  8
0
  6
BYBLOCK
 62
     0
100
AcDbLine
 10
284.6949319999998
 20
34.57984699999999
 30
0.0
 11
284.6949319999998
 21
34.286392
 31
0.0
  0
LINE
  5
79
330
75
100
AcDbEntity
  8
0
  6
BYBLOCK
 62
     0
100
AcDbLine
 10
286.5449319999999
 20
34.301392
 30
0.0
 11
284.8449319999998
 21
34.301392
 31
0.0
  0
SOLID
  5
7A
330
75
100
AcDbEntity
  8
0
  6
BYBLOCK
 62
     0
100
AcDbTrace
 10
286.5449319999999
 20
34.326392
 30
0.0
 11
286.5449319999999
 21
34.276392
 31
0.0
 12
286.6949319999998
 22
34.301392
 32
0.0
 13
286.6949319999998
 23
34.301392
 33
0.0
  0
SOLID
  5
7B
330
75
100
AcDbEntity
  8
0
  6
BYBLOCK
 62
     0
100
AcDbTrace
 10
284.8449319999998
 20
34.326392
 30
0.0
 11
284.8449319999998
 21
34.276392
 31
0.0
 12
284.6949319999998
 22
34.301392
 32
0.0
 13
284.6949319999998
 23
34.301392
 33
0.0
  0
TEXT
  5
7C
330
75
100
AcDbEntity
  8
0
  6
BYBLOCK
 62
     0
100
AcDbText
 10
285.5699319999999
 20
34.33889199999998
 30
0.0
 40
0.075
  1
2.00
  7
ROMANC
 72
     1
 11
285.694932
 21
34.37639199999999
 31
0.0
100
AcDbText
 73
     2
  0
POINT
  5
7D
330
75
100
AcDbEntity
  8
DEFPOINTS
  6
BYBLOCK
 62
     0
100
AcDbPoint
 10
286.6949319999998
 20
34.59484699999999
 30
0.0
  0
POINT
  5
7E
330
75
100
AcDbEntity
  8
DEFPOINTS
  6
BYBLOCK
 62
     0
100
AcDbPoint
 10
284.6949319999998
 20
34.59484699999999
 30
0.0
  0
POINT
  5
7F
330
75
100
AcDbEntity
  8
DEFPOINTS
  6
BYBLOCK
 62
     0
100
AcDbPoint
 10
284.6949319999998
 20
34.301392
 30
0.0
  0
ENDBLK
  5
80
330
75
100
AcDbEntity
  8
0
100
AcDbBlockEnd
  0
BLOCK
  5
82
330
81
100
AcDbEntity
  8
0
100
AcDbBlockBegin
  2
*D7
 70
     1
 10
0.0
 20
0.0
 30
0.0
  3
*D7
  1

  0
LINE
  5
83
330
81
100
AcDbEntity
  8
0
  6
BYBLOCK
 62
     0
100
AcDbLine
 10
286.7099319999998
 20
34.59484699999999
 30
0.0
 11
287.0077049999998
 21
34.59484699999999
 31
0.0
  0
LINE
  5
84
330
81
100
AcDbEntity
  8
0
  6
BYBLOCK
 62
     0
100
AcDbLine
 10
286.7099319999998
 20
36.394847
 30
0.0
 11
287.0077049999998
 21
36.394847
 31
0.0
  0
LINE
  5
85
330
81
100
AcDbEntity
  8
0
  6
BYBLOCK
 62
     0
100
AcDbLine
 10
286.992705
 20
34.744847
 30
0.0
 11
286.992705
 21
36.244847
 31
0.0
  0
SOLID
  5
86
330
81
100
AcDbEntity
  8
0
  6
BYBLOCK
 62
     0
100
AcDbTrace
 10
286.9677049999999
 20
34.744847
 30
0.0
 11
287.0177049999998
 21
34.744847
 31
0.0
 12
286.992705
 22
34.59484699999999
 32
0.0
 13
286.992705
 23
34.59484699999999
 33
0.0
  0
SOLID
  5
87
330
81
100
AcDbEntity
  8
0
  6
BYBLOCK
 62
     0
100
AcDbTrace
 10
286.9677049999999
 20
36.244847
 30
0.0
 11
287.0177049999998
 21
36.244847
 31
0.0
 12
286.992705
 22
36.394847
 32
0.0
 13
286.992705
 23
36.394847
 33
0.0
  0
TEXT
  5
88
330
81
100
AcDbEntity
  8
0
  6
BYBLOCK
 62
     0
100
AcDbText
 10
286.9552049999999
 20
35.37520414285714
 30
0.0
 40
0.075
  1
1.80
 50
90.0
  7
ROMANC
 72
     1
 11
286.9177049999998
 21
35.494847
 31
0.0
100
AcDbText
 73
     2
  0
POINT
  5
89
330
81
100
AcDbEntity
  8
DEFPOINTS
  6
BYBLOCK
 62
     0
100
AcDbPoint
 10
286.6949319999998
 20
34.59484699999999
 30
0.0
  0
POINT
  5
8A
330
81
100
AcDbEntity
  8
DEFPOINTS
  6
BYBLOCK
 62
     0
100
AcDbPoint
 10
286.6949319999998
 20
36.394847
 30
0.0
  0
POINT
  5
8B
330
81
100
AcDbEntity
  8
DEFPOINTS
  6
BYBLOCK
 62
     0
100
AcDbPoint
 10
286.992705
 20
36.394847
 30
0.0
  0
ENDBLK
  5
8C
330
81
100
AcDbEntity
  8
0
100
AcDbBlockEnd
  0
ENDSEC
  0
SECTION
  2
ENTITIES
  0
LINE
  5
8D
330
1E
100
AcDbEntity
  8
NO_PRINT
100
AcDbLine
 10
291.895795
 20
29.897444
 30
0.0
 11
291.895795
 21
44.747444
 31
0.0
  0
TEXT
  5
8E
330
1E
100
AcDbEntity
  8
0
100
AcDbText
 10
283.887846
 20
40.56142
 30
0.0
 40
0.3
  1
P = 76 dm
  7
ROMANC
100
AcDbText
  0
LINE
  5
8F
330
1E
100
AcDbEntity
  8
NO_PRINT
100
AcDbLine
 10
281.395795
 20
44.747444
 30
0.0
 11
281.395795
 21
29.897444
 31
0.0
  0
LINE
  5
90
330
1E
100
AcDbEntity
  8
NO_PRINT
100
AcDbLine
 10
281.395795
 20
29.897444
 30
0.0
 11
291.895795
 21
29.897444
 31
0.0
  0
LINE
  5
91
330
1E
100
AcDbEntity
  8
NO_PRINT
100
AcDbLine
 10
291.895795
 20
44.747444
 30
0.0
 11
281.395795
 21
44.747444
 31
0.0
  0
TEXT
  5
92
330
1E
100
AcDbEntity
  8
0
100
AcDbText
 10
287.1222709999999
 20
41.564915
 30
0.0
 40
0.1
  1
2
  7
ROMANC
100
AcDbText
  0
TEXT
  5
93
330
1E
100
AcDbEntity
  8
0
100
AcDbText
 10
283.925768
 20
41.857589
 30
0.0
 40
0.3
  1
ESCALA  1:50
  7
ROMANC
100
AcDbText
  0
TEXT
  5
94
330
1E
100
AcDbEntity
  8
0
100
AcDbText
 10
283.925768
 20
42.343303
 30
0.0
 40
0.3
  1
TIPUS   NT360
  7
ROMANC
100
AcDbText
  0
TEXT
  5
95
330
1E
100
AcDbEntity
  8
0
100
AcDbText
 10
283.938862
 20
41.25899899999999
 30
0.0
 40
0.3
  1
S = 360 dm
  7
ROMANC
100
AcDbText
  0
LINE
  5
96
330
1E
100
AcDbEntity
  8
0
100
AcDbLine
 10
284.679932
 20
34.57984699999999
 30
0.0
 11
284.679932
 21
36.409847
 31
0.0
  0
LINE
  5
97
330
1E
100
AcDbEntity
  8
0
100
AcDbLine
 10
284.679932
 20
36.409847
 30
0.0
 11
286.7099319999998
 21
36.409847
 31
0.0
  0
LINE
  5
98
330
1E
100
AcDbEntity
  8
0
100
AcDbLine
 10
286.7099319999998
 20
36.409847
 30
0.0
 11
286.7099319999998
 21
34.57984699999999
 31
0.0
  0
LINE
  5
99
330
1E
100
AcDbEntity
  8
0
100
AcDbLine
 10
286.7099319999998
 20
34.57984699999999
 30
0.0
 11
284.679932
 21
34.57984699999999
 31
0.0
  0
LINE
  5
9A
330
1E
100
AcDbEntity
  8
0
100
AcDbLine
 10
284.6874319999999
 20
34.58734699999999
 30
0.0
 11
284.6874319999999
 21
36.402347
 31
0.0
  0
LINE
  5
9B
330
1E
100
AcDbEntity
  8
0
100
AcDbLine
 10
284.6874319999999
 20
36.402347
 30
0.0
 11
286.702432
 21
36.402347
 31
0.0
  0
LINE
  5
9C
330
1E
100
AcDbEntity
  8
0
100
AcDbLine
 10
286.702432
 20
36.402347
 30
0.0
 11
286.702432
 21
34.58734699999999
 31
0.0
  0
LINE
  5
9D
330
1E
100
AcDbEntity
  8
0
100
AcDbLine
 10
286.702432
 20
34.58734699999999
 30
0.0
 11
284.6874319999999
 21
34.58734699999999
 31
0.0
  0
LINE
  5
9E
330
1E
100
AcDbEntity
  8
0
  6
BYBLOCK
 62
     0
100
AcDbLine
 10
286.7099319999998
 20
34.59484699999999
 30
0.0
 11
287.0077049999998
 21
34.59484699999999
 31
0.0
  0
LINE
  5
9F
330
1E
100
AcDbEntity
  8
0
  6
BYBLOCK
 62
     0
100
AcDbLine
 10
286.7099319999998
 20
36.394847
 30
0.0
 11
287.0077049999998
 21
36.394847
 31
0.0
  0
LINE
  5
A0
330
1E
100
AcDbEntity
  8
0
  6
BYBLOCK
 62
     0
100
AcDbLine
 10
286.992705
 20
34.744847
 30
0.0
 11
286.992705
 21
36.244847
 31
0.0
  0
SOLID
  5
A1
330
1E
100
AcDbEntity
  8
0
  6
BYBLOCK
 62
     0
100
AcDbTrace
 10
286.9677049999999
 20
34.744847
 30
0.0
 11
287.0177049999998
 21
34.744847
 31
0.0
 12
286.992705
 22
34.59484699999999
 32
0.0
 13
286.992705
 23
34.59484699999999
 33
0.0
  0
SOLID
  5
A2
330
1E
100
AcDbEntity
  8
0
  6
BYBLOCK
 62
     0
100
AcDbTrace
 10
286.9677049999999
 20
36.244847
 30
0.0
 11
287.0177049999998
 21
36.244847
 31
0.0
 12
286.992705
 22
36.394847
 32
0.0
 13
286.992705
 23
36.394847
 33
0.0
  0
TEXT
  5
A3
330
1E
100
AcDbEntity
  8
0
  6
BYBLOCK
 62
     0
100
AcDbText
 10
286.9552049999999
 20
35.37520414285714
 30
0.0
 40
0.075
  1
1.80
 50
90.0
  7
ROMANC
 72
     1
 11
286.9177049999998
 21
35.494847
 31
0.0
100
AcDbText
 73
     2
  0
POINT
  5
A4
330
1E
100
AcDbEntity
  8
DEFPOINTS
  6
BYBLOCK
 62
     0
100
AcDbPoint
 10
286.6949319999998
 20
34.59484699999999
 30
0.0
  0
POINT
  5
A5
330
1E
100
AcDbEntity
  8
DEFPOINTS
  6
BYBLOCK
 62
     0
100
AcDbPoint
 10
286.6949319999998
 20
36.394847
 30
0.0
  0
POINT
  5
A6
330
1E
100
AcDbEntity
  8
DEFPOINTS
  6
BYBLOCK
 62
     0
100
AcDbPoint
 10
286.992705
 20
36.394847
 30
0.0
  0
LINE
  5
A7
330
1E
100
AcDbEntity
  8
0
  6
BYBLOCK
 62
     0
100
AcDbLine
 10
286.6949319999998
 20
34.57984699999999
 30
0.0
 11
286.6949319999998
 21
34.286392
 31
0.0
  0
LINE
  5
A8
330
1E
100
AcDbEntity
  8
0
  6
BYBLOCK
 62
     0
100
AcDbLine
 10
284.6949319999998
 20
34.57984699999999
 30
0.0
 11
284.6949319999998
 21
34.286392
 31
0.0
  0
LINE
  5
A9
330
1E
100
AcDbEntity
  8
0
  6
BYBLOCK
 62
     0
100
AcDbLine
 10
286.5449319999999
 20
34.301392
 30
0.0
 11
284.8449319999998
 21
34.301392
 31
0.0
  0
SOLID
  5
AA
330
1E
100
AcDbEntity
  8
0
  6
BYBLOCK
 62
     0
100
AcDbTrace
 10
286.5449319999999
 20
34.326392
 30
0.0
 11
286.5449319999999
 21
34.276392
 31
0.0
 12
286.6949319999998
 22
34.301392
 32
0.0
 13
286.6949319999998
 23
34.301392
 33
0.0
  0
SOLID
  5
AB
330
1E
100
AcDbEntity
  8
0
  6
BYBLOCK
 62
     0
100
AcDbTrace
 10
284.8449319999998
 20
34.326392
 30
0.0
 11
284.8449319999998
 21
34.276392
 31
0.0
 12
284.6949319999998
 22
34.301392
 32
0.0
 13
284.6949319999998
 23
34.301392
 33
0.0
  0
TEXT
  5
AC
330
1E
100
AcDbEntity
  8
0
  6
BYBLOCK
 62
     0
100
AcDbText
 10
285.5699319999999
 20
34.33889199999998
 30
0.0
 40
0.075
  1
2.00
  7
ROMANC
 72
     1
 11
285.694932
 21
34.37639199999999
 31
0.0
100
AcDbText
 73
     2
  0
POINT
  5
AD
330
1E
100
AcDbEntity
  8
DEFPOINTS
  6
BYBLOCK
 62
     0
100
AcDbPoint
 10
286.6949319999998
 20
34.59484699999999
 30
0.0
  0
POINT
  5
AE
330
1E
100
AcDbEntity
  8
DEFPOINTS
  6
BYBLOCK
 62
     0
100
AcDbPoint
 10
284.6949319999998
 20
34.59484699999999
 30
0.0
  0
POINT
  5
AF
330
1E
100
AcDbEntity
  8
DEFPOINTS
  6
BYBLOCK
 62
     0
100
AcDbPoint
 10
284.6949319999998
 20
34.301392
 30
0.0
  0
LINE
  5
B0
330
1E
100
AcDbEntity
  8
0
100
AcDbLine
 10
284.6949319999998
 20
34.59484699999999
 30
0.0
 11
284.6949319999998
 21
36.394847
 31
0.0
  0
LINE
  5
B1
330
1E
100
AcDbEntity
  8
0
100
AcDbLine
 10
284.6949319999998
 20
36.394847
 30
0.0
 11
286.6949319999998
 21
36.394847
 31
0.0
  0
LINE
  5
B2
330
1E
100
AcDbEntity
  8
0
100
AcDbLine
 10
286.6949319999998
 20
36.394847
 30
0.0
 11
286.6949319999998
 21
34.59484699999999
 31
0.0
  0
LINE
  5
B3
330
1E
100
AcDbEntity
  8
0
100
AcDbLine
 10
286.6949319999998
 20
34.59484699999999
 30
0.0
 11
284.6949319999998
 21
34.59484699999999
 31
0.0
  0
ENDSEC
  0
SECTION
  2
OBJECTS
  0
DICTIONARY
  5
C
330
0
100
AcDbDictionary
  3
ACAD_GROUP
350
D
  3
ACAD_PLOTSTYLENAME
350
E
  3
ACAD_MLINESTYLE
350
16
  3
ACAD_PLOTSETTINGS
350
18
  3
ACAD_LAYOUT
350
19
  3
ACDBHEADERROUNDTRIPXREC
350
E3
  0
DICTIONARY
  5
D9
330
1E
100
AcDbDictionary
280
     1
  3
ACAD_LAYOUTSELFREF
360
104
  0
DICTIONARY
  5
D7
330
1A
100
AcDbDictionary
280
     1
  3
ACAD_LAYOUTSELFREF
360
103
  0
DICTIONARY
  5
D
102
{ACAD_REACTORS
330
C
102
}
330
C
100
AcDbDictionary
  0
ACDBDICTIONARYWDFLT
  5
E
102
{ACAD_REACTORS
330
C
102
}
330
C
100
AcDbDictionary
281
     1
  3
Normal
350
F
100
AcDbDictionaryWithDefault
340
F
  0
DICTIONARY
  5
16
102
{ACAD_REACTORS
330
C
102
}
330
C
100
AcDbDictionary
  3
STANDARD
350
17
  0
DICTIONARY
  5
18
102
{ACAD_REACTORS
330
C
102
}
330
C
100
AcDbDictionary
  0
DICTIONARY
  5
19
102
{ACAD_REACTORS
330
C
102
}
330
C
100
AcDbDictionary
  0
DICTIONARY
  5
E3
102
{ACAD_REACTORS
330
C
102
}
330
C
100
AcDbDictionary
  3
TSTACKALIGN
350
E4
  3
TSTACKSIZE
350
E5
  3
HYPERLINKBASE
350
E6
  3
STYLESHEET
350
E7
  3
LAYOUTDICT
350
E8
  3
PLOTSETDICT
350
E9
  3
PLOTSTYLNAMDICT
350
EA
  3
LWETCUNION
350
EB
  3
INSUNITS
350
EC
  3
CEPSNTYPE
350
ED
  3
FINGERPRINTGUID
350
EE
  3
VERSIONGUID
350
EF
  3
PSVPSCALE
350
F0
  3
PUCSORTHOREF
350
F1
  3
PUCSORTHOVIEW
350
F2
  3
PUCSBASE
350
F3
  3
PUCSORGTOP
350
F4
  3
PUCSORGBOTTOM
350
F5
  3
PUCSORGLEFT
350
F6
  3
PUCSORGRIGHT
350
F7
  3
PUCSORGFRONT
350
F8
  3
PUCSORGBACK
350
F9
  3
UCSORTHOREF
350
FA
  3
UCSORTHOVIEW
350
FB
  3
UCSBASE
350
FC
  3
UCSORGTOP
350
FD
  3
UCSORGBOTTOM
350
FE
  3
UCSORGLEFT
350
FF
  3
UCSORGRIGHT
350
100
  3
UCSORGFRONT
350
101
  3
UCSORGBACK
350
102
  0
XRECORD
  5
104
102
{ACAD_REACTORS
330
D9
102
}
330
D9
100
AcDbXrecord
340
1E
  0
XRECORD
  5
103
102
{ACAD_REACTORS
330
D7
102
}
330
D7
100
AcDbXrecord
340
1A
  0
ACDBPLACEHOLDER
  5
F
102
{ACAD_REACTORS
330
E
102
}
330
E
100
AcDbPlaceHolder
280
     0
  0
MLINESTYLE
  5
17
102
{ACAD_REACTORS
330
16
102
}
330
16
100
AcDbMlineStyle
  2
STANDARD
 70
     0
  3

 62
   256
 51
90.0
 52
90.0
 71
     2
 49
0.5
 62
   256
  6
BYLAYER
 49
-0.5
 62
   256
  6
BYLAYER
  0
XRECORD
  5
E4
102
{ACAD_REACTORS
330
E3
102
}
330
E3
100
AcDbXrecord
 90
        1
  0
XRECORD
  5
E5
102
{ACAD_REACTORS
330
E3
102
}
330
E3
100
AcDbXrecord
 90
       70
  0
XRECORD
  5
E6
102
{ACAD_REACTORS
330
E3
102
}
330
E3
100
AcDbXrecord
  1

  0
XRECORD
  5
E7
102
{ACAD_REACTORS
330
E3
102
}
330
E3
100
AcDbXrecord
  1
STANDARD2.ctb
  0
XRECORD
  5
E8
102
{ACAD_REACTORS
330
E3
102
}
330
E3
100
AcDbXrecord
340
19
  0
XRECORD
  5
E9
102
{ACAD_REACTORS
330
E3
102
}
330
E3
100
AcDbXrecord
340
18
  0
XRECORD
  5
EA
102
{ACAD_REACTORS
330
E3
102
}
330
E3
100
AcDbXrecord
340
E
  0
XRECORD
  5
EB
102
{ACAD_REACTORS
330
E3
102
}
330
E3
100
AcDbXrecord
 90
    10781
  0
XRECORD
  5
EC
102
{ACAD_REACTORS
330
E3
102
}
330
E3
100
AcDbXrecord
 90
        0
  0
XRECORD
  5
ED
102
{ACAD_REACTORS
330
E3
102
}
330
E3
100
AcDbXrecord
 90
        0
  0
XRECORD
  5
EE
102
{ACAD_REACTORS
330
E3
102
}
330
E3
100
AcDbXrecord
  1
{1969E5AD-4303-48AC-BEBF-010061551368}
  0
XRECORD
  5
EF
102
{ACAD_REACTORS
330
E3
102
}
330
E3
100
AcDbXrecord
  1
{90D84336-4A98-4875-8851-4C8A87FEC528}
  0
XRECORD
  5
F0
102
{ACAD_REACTORS
330
E3
102
}
330
E3
100
AcDbXrecord
 40
0.0
  0
XRECORD
  5
F1
102
{ACAD_REACTORS
330
E3
102
}
330
E3
100
AcDbXrecord
340
0
  0
XRECORD
  5
F2
102
{ACAD_REACTORS
330
E3
102
}
330
E3
100
AcDbXrecord
 70
     0
  0
XRECORD
  5
F3
102
{ACAD_REACTORS
330
E3
102
}
330
E3
100
AcDbXrecord
340
0
  0
XRECORD
  5
F4
102
{ACAD_REACTORS
330
E3
102
}
330
E3
100
AcDbXrecord
 10
0.0
 20
0.0
 30
0.0
  0
XRECORD
  5
F5
102
{ACAD_REACTORS
330
E3
102
}
330
E3
100
AcDbXrecord
 10
0.0
 20
0.0
 30
0.0
  0
XRECORD
  5
F6
102
{ACAD_REACTORS
330
E3
102
}
330
E3
100
AcDbXrecord
 10
0.0
 20
0.0
 30
0.0
  0
XRECORD
  5
F7
102
{ACAD_REACTORS
330
E3
102
}
330
E3
100
AcDbXrecord
 10
0.0
 20
0.0
 30
0.0
  0
XRECORD
  5
F8
102
{ACAD_REACTORS
330
E3
102
}
330
E3
100
AcDbXrecord
 10
0.0
 20
0.0
 30
0.0
  0
XRECORD
  5
F9
102
{ACAD_REACTORS
330
E3
102
}
330
E3
100
AcDbXrecord
 10
0.0
 20
0.0
 30
0.0
  0
XRECORD
  5
FA
102
{ACAD_REACTORS
330
E3
102
}
330
E3
100
AcDbXrecord
340
0
  0
XRECORD
  5
FB
102
{ACAD_REACTORS
330
E3
102
}
330
E3
100
AcDbXrecord
 70
     0
  0
XRECORD
  5
FC
102
{ACAD_REACTORS
330
E3
102
}
330
E3
100
AcDbXrecord
340
0
  0
XRECORD
  5
FD
102
{ACAD_REACTORS
330
E3
102
}
330
E3
100
AcDbXrecord
 10
0.0
 20
0.0
 30
0.0
  0
XRECORD
  5
FE
102
{ACAD_REACTORS
330
E3
102
}
330
E3
100
AcDbXrecord
 10
0.0
 20
0.0
 30
0.0
  0
XRECORD
  5
FF
102
{ACAD_REACTORS
330
E3
102
}
330
E3
100
AcDbXrecord
 10
0.0
 20
0.0
 30
0.0
  0
XRECORD
  5
100
102
{ACAD_REACTORS
330
E3
102
}
330
E3
100
AcDbXrecord
 10
0.0
 20
0.0
 30
0.0
  0
XRECORD
  5
101
102
{ACAD_REACTORS
330
E3
102
}
330
E3
100
AcDbXrecord
 10
0.0
 20
0.0
 30
0.0
  0
XRECORD
  5
102
102
{ACAD_REACTORS
330
E3
102
}
330
E3
100
AcDbXrecord
 10
0.0
 20
0.0
 30
0.0
  0
ENDSEC
  0
EOF
