  0
SECTION
  2
HEADER
  9
$ACADVER
  1
AC1009
  9
$INSBASE
 10
0.0
 20
0.0
 30
0.0
  9
$EXTMIN
 10
318.829805
 20
29.85788
 30
-0.001526
  9
$EXTMAX
 10
329.371339
 20
44.72551
 30
0.0
  9
$LIMMIN
 10
0.0
 20
0.0
  9
$LIMMAX
 10
410.0
 20
287.0
  9
$ORTHOMODE
 70
     1
  9
$REGENMODE
 70
     1
  9
$FILLMODE
 70
     1
  9
$QTEXTMODE
 70
     0
  9
$MIRRTEXT
 70
     1
  9
$DRAGMODE
 70
     2
  9
$LTSCALE
 40
25.0
  9
$OSMODE
 70
     0
  9
$ATTMODE
 70
     1
  9
$TEXTSIZE
 40
0.1
  9
$TRACEWID
 40
1.0
  9
$TEXTSTYLE
  7
ROMANC
  9
$CLAYER
  8
0
  9
$CELTYPE
  6
BYLAYER
  9
$CECOLOR
 62
   256
  9
$DIMSCALE
 40
1.5
  9
$DIMASZ
 40
0.1
  9
$DIMEXO
 40
0.01
  9
$DIMDLI
 40
7.0
  9
$DIMRND
 40
0.0
  9
$DIMDLE
 40
0.0
  9
$DIMEXE
 40
0.01
  9
$DIMTP
 40
0.0
  9
$DIMTM
 40
0.0
  9
$DIMTXT
 40
0.05
  9
$DIMCEN
 40
0.0
  9
$DIMTSZ
 40
0.0
  9
$DIMTOL
 70
     0
  9
$DIMLIM
 70
     0
  9
$DIMTIH
 70
     0
  9
$DIMTOH
 70
     0
  9
$DIMSE1
 70
     0
  9
$DIMSE2
 70
     0
  9
$DIMTAD
 70
     1
  9
$DIMZIN
 70
     0
  9
$DIMBLK
  1

  9
$DIMASO
 70
     1
  9
$DIMSHO
 70
     0
  9
$DIMPOST
  1

  9
$DIMAPOST
  1

  9
$DIMALT
 70
     0
  9
$DIMALTD
 70
     2
  9
$DIMALTF
 40
25.4
  9
$DIMLFAC
 40
1.0
  9
$DIMTOFL
 70
     1
  9
$DIMTVP
 40
0.0
  9
$DIMTIX
 70
     1
  9
$DIMSOXD
 70
     0
  9
$DIMSAH
 70
     0
  9
$DIMBLK1
  1

  9
$DIMBLK2
  1

  9
$DIMSTYLE
  2
MERITXELL
  9
$DIMCLRD
 70
     0
  9
$DIMCLRE
 70
     0
  9
$DIMCLRT
 70
     0
  9
$DIMTFAC
 40
70.0
  9
$DIMGAP
 40
0.025
  9
$LUNITS
 70
     2
  9
$LUPREC
 70
     2
  9
$SKETCHINC
 40
1.0
  9
$FILLETRAD
 40
0.0
  9
$AUNITS
 70
     0
  9
$AUPREC
 70
     0
  9
$MENU
  1
acad
  9
$ELEVATION
 40
0.0
  9
$PELEVATION
 40
0.0
  9
$THICKNESS
 40
0.0
  9
$LIMCHECK
 70
     0
  9
$BLIPMODE
 70
     0
  9
$CHAMFERA
 40
0.0
  9
$CHAMFERB
 40
0.0
  9
$SKPOLY
 70
     0
  9
$TDCREATE
 40
2450927.46195
  9
$TDUPDATE
 40
2451047.90779
  9
$TDINDWG
 40
0.05068
  9
$TDUSRTIMER
 40
0.05068
  9
$USRTIMER
 70
     1
  9
$ANGBASE
 50
0.0
  9
$ANGDIR
 70
     0
  9
$PDMODE
 70
     0
  9
$PDSIZE
 40
0.0
  9
$PLINEWID
 40
0.0
  9
$COORDS
 70
     2
  9
$SPLFRAME
 70
     0
  9
$SPLINETYPE
 70
     6
  9
$SPLINESEGS
 70
     8
  9
$ATTDIA
 70
     0
  9
$ATTREQ
 70
     1
  9
$HANDLING
 70
     1
  9
$HANDSEED
  5
2DC
  9
$SURFTAB1
 70
     6
  9
$SURFTAB2
 70
     6
  9
$SURFTYPE
 70
     6
  9
$SURFU
 70
     6
  9
$SURFV
 70
     6
  9
$UCSNAME
  2

  9
$UCSORG
 10
0.0
 20
0.0
 30
0.0
  9
$UCSXDIR
 10
1.0
 20
0.0
 30
0.0
  9
$UCSYDIR
 10
0.0
 20
1.0
 30
0.0
  9
$PUCSNAME
  2

  9
$PUCSORG
 10
0.0
 20
0.0
 30
0.0
  9
$PUCSXDIR
 10
1.0
 20
0.0
 30
0.0
  9
$PUCSYDIR
 10
0.0
 20
1.0
 30
0.0
  9
$USERI1
 70
     0
  9
$USERI2
 70
     0
  9
$USERI3
 70
     0
  9
$USERI4
 70
     0
  9
$USERI5
 70
     0
  9
$USERR1
 40
0.0
  9
$USERR2
 40
0.0
  9
$USERR3
 40
0.0
  9
$USERR4
 40
0.0
  9
$USERR5
 40
0.0
  9
$WORLDVIEW
 70
     1
  9
$SHADEDGE
 70
     3
  9
$SHADEDIF
 70
    70
  9
$TILEMODE
 70
     1
  9
$MAXACTVP
 70
    16
  9
$PLIMCHECK
 70
     0
  9
$PEXTMIN
 10
1.000000E+020
 20
1.000000E+020
 30
1.000000E+020
  9
$PEXTMAX
 10
-1.000000E+020
 20
-1.000000E+020
 30
-1.000000E+020
  9
$PLIMMIN
 10
0.0
 20
0.0
  9
$PLIMMAX
 10
12.0
 20
9.0
  9
$UNITMODE
 70
     0
  9
$VISRETAIN
 70
     0
  9
$PLINEGEN
 70
     0
  9
$PSLTSCALE
 70
     0
  0
ENDSEC
  0
SECTION
  2
TABLES
  0
TABLE
  2
VPORT
 70
     6
  0
VPORT
  2
*ACTIVE
 70
     0
 10
0.0
 20
0.0
 11
1.0
 21
1.0
 12
324.100572
 22
37.291695
 13
0.0
 23
0.0
 14
1.0
 24
1.0
 15
10.0
 25
10.0
 16
0.0
 26
0.0
 36
1.0
 17
0.0
 27
0.0
 37
0.0
 40
15.034682
 41
1.73546
 42
50.0
 43
0.0
 44
0.0
 50
0.0
 51
0.0
 71
     0
 72
   100
 73
     1
 74
     0
 75
     0
 76
     0
 77
     0
 78
     1
  0
ENDTAB
  0
TABLE
  2
LTYPE
 70
     1
  0
LTYPE
  2
CONTINUOUS
 70
     0
  3
Solid line
 72
    65
 73
     0
 40
0.0
  0
ENDTAB
  0
TABLE
  2
LAYER
 70
     2
  0
LAYER
  2
0
 70
     0
 62
     7
  6
CONTINUOUS
  0
LAYER
  2
DEFPOINTS
 70
     0
 62
     7
  6
CONTINUOUS
  0
ENDTAB
  0
TABLE
  2
STYLE
 70
     2
  0
STYLE
  2
STANDARD
 70
     0
 40
0.0
 41
1.0
 50
0.0
 71
     0
 42
0.1
  3
txt
  4

  0
STYLE
  2
ROMANC
 70
     0
 40
0.0
 41
1.0
 50
0.0
 71
     0
 42
0.1
  3
romanc
  4

  0
ENDTAB
  0
TABLE
  2
VIEW
 70
     0
  0
ENDTAB
  0
TABLE
  2
UCS
 70
     0
  0
ENDTAB
  0
TABLE
  2
APPID
 70
     1
  0
APPID
  2
ACAD
 70
     0
  0
ENDTAB
  0
TABLE
  2
DIMSTYLE
 70
     1
  0
DIMSTYLE
  2
MERITXELL
 70
     0
  3

  4

  5

  6

  7

 40
1.5
 41
0.1
 42
0.01
 43
7.0
 44
0.01
 45
0.0
 46
0.0
 47
0.0
 48
0.0
140
0.05
141
0.1
142
0.0
143
25.4
144
1.0
145
0.0
146
70.0
147
0.09
 71
     0
 72
     0
 73
     0
 74
     0
 75
     0
 76
     0
 77
     1
 78
     0
170
     0
171
     2
172
     1
173
     0
174
     1
175
     0
176
     0
177
     0
178
     0
  0
ENDTAB
  0
ENDSEC
  0
SECTION
  2
BLOCKS
  0
BLOCK
  8
0
  2
$MODEL_SPACE
 70
     0
 10
0.0
 20
0.0
 30
0.0
  3
$MODEL_SPACE
  1

  0
ENDBLK
  5
24
  8
0
  0
BLOCK
 67
     1
  8
0
  2
$PAPER_SPACE
 70
     0
 10
0.0
 20
0.0
 30
0.0
  3
$PAPER_SPACE
  1

  0
ENDBLK
  5
22
 67
     1
  8
0
  0
BLOCK
  8
0
  2
*D4
 70
     1
 10
0.0
 20
0.0
 30
0.0
  3
*D4
  1

  0
LINE
  5
169
  8
0
  6
BYBLOCK
 62
     0
 10
322.82643
 20
34.652329
 30
0.0
 11
322.82643
 21
34.144609
 31
0.0
  0
LINE
  5
16A
  8
0
  6
BYBLOCK
 62
     0
 10
322.42643
 20
34.652329
 30
0.0
 11
322.42643
 21
34.144609
 31
0.0
  0
LINE
  5
16B
  8
0
  6
BYBLOCK
 62
     0
 10
322.67643
 20
34.159609
 30
0.0
 11
322.57643
 21
34.159609
 31
0.0
  0
SOLID
  5
16C
  8
0
  6
BYBLOCK
 62
     0
 10
322.67643
 20
34.184609
 30
0.0
 11
322.67643
 21
34.134609
 31
0.0
 12
322.82643
 22
34.159609
 32
0.0
 13
322.82643
 23
34.159609
 33
0.0
  0
SOLID
  5
16D
  8
0
  6
BYBLOCK
 62
     0
 10
322.57643
 20
34.184609
 30
0.0
 11
322.57643
 21
34.134609
 31
0.0
 12
322.42643
 22
34.159609
 32
0.0
 13
322.42643
 23
34.159609
 33
0.0
  0
TEXT
  8
0
  40
0.075
  5
2C3
  62
0
  72
0
  71
0
 10
322.476
 20
34.1019
 30
0.000000
  1
0.40
  7
ROMANC
  0
POINT
  5
16F
  8
DEFPOINTS
  6
BYBLOCK
 62
     0
 10
322.82643
 20
34.667329
 30
0.0
  0
POINT
  5
170
  8
DEFPOINTS
  6
BYBLOCK
 62
     0
 10
322.42643
 20
34.667329
 30
0.0
  0
POINT
  5
171
  8
DEFPOINTS
  6
BYBLOCK
 62
     0
 10
322.42643
 20
34.159609
 30
0.0
  0
ENDBLK
  5
172
  8
0
  0
BLOCK
  8
0
  2
*D5
 70
     1
 10
0.0
 20
0.0
 30
0.0
  3
*D5
  1

  0
LINE
  5
176
  8
0
  6
BYBLOCK
 62
     0
 10
323.52643
 20
34.652329
 30
0.0
 11
323.52643
 21
34.144609
 31
0.0
  0
LINE
  5
177
  8
0
  6
BYBLOCK
 62
     0
 10
324.42643
 20
34.652329
 30
0.0
 11
324.42643
 21
34.144609
 31
0.0
  0
LINE
  5
178
  8
0
  6
BYBLOCK
 62
     0
 10
323.67643
 20
34.159609
 30
0.0
 11
324.27643
 21
34.159609
 31
0.0
  0
SOLID
  5
179
  8
0
  6
BYBLOCK
 62
     0
 10
323.67643
 20
34.184609
 30
0.0
 11
323.67643
 21
34.134609
 31
0.0
 12
323.52643
 22
34.159609
 32
0.0
 13
323.52643
 23
34.159609
 33
0.0
  0
SOLID
  5
17A
  8
0
  6
BYBLOCK
 62
     0
 10
324.27643
 20
34.184609
 30
0.0
 11
324.27643
 21
34.134609
 31
0.0
 12
324.42643
 22
34.159609
 32
0.0
 13
324.42643
 23
34.159609
 33
0.0
  0
TEXT
  8
0
  40
0.075
  5
2C4
  62
0
  72
0
  71
0
 10
323.826
 20
34.1019
 30
0.000000
  1
0.90
  7
ROMANC
  0
POINT
  5
17C
  8
DEFPOINTS
  6
BYBLOCK
 62
     0
 10
323.52643
 20
34.667329
 30
0.0
  0
POINT
  5
17D
  8
DEFPOINTS
  6
BYBLOCK
 62
     0
 10
324.42643
 20
34.667329
 30
0.0
  0
POINT
  5
17E
  8
DEFPOINTS
  6
BYBLOCK
 62
     0
 10
324.42643
 20
34.159609
 30
0.0
  0
ENDBLK
  5
17F
  8
0
  0
BLOCK
  8
0
  2
*D6
 70
     1
 10
0.0
 20
0.0
 30
0.0
  3
*D6
  1

  0
LINE
  5
183
  8
0
  6
BYBLOCK
 62
     0
 10
322.82643
 20
34.652329
 30
0.0
 11
322.82643
 21
34.144609
 31
0.0
  0
LINE
  5
184
  8
0
  6
BYBLOCK
 62
     0
 10
323.52643
 20
34.637329
 30
0.0
 11
323.52643
 21
34.144609
 31
0.0
  0
LINE
  5
185
  8
0
  6
BYBLOCK
 62
     0
 10
322.97643
 20
34.159609
 30
0.0
 11
323.37643
 21
34.159609
 31
0.0
  0
SOLID
  5
186
  8
0
  6
BYBLOCK
 62
     0
 10
322.97643
 20
34.184609
 30
0.0
 11
322.97643
 21
34.134609
 31
0.0
 12
322.82643
 22
34.159609
 32
0.0
 13
322.82643
 23
34.159609
 33
0.0
  0
SOLID
  5
187
  8
0
  6
BYBLOCK
 62
     0
 10
323.37643
 20
34.184609
 30
0.0
 11
323.37643
 21
34.134609
 31
0.0
 12
323.52643
 22
34.159609
 32
0.0
 13
323.52643
 23
34.159609
 33
0.0
  0
TEXT
  8
0
  40
0.075
  5
2C5
  62
0
  72
0
  71
0
 10
323.026
 20
34.1019
 30
0.000000
  1
0.70
  7
ROMANC
  0
POINT
  5
189
  8
DEFPOINTS
  6
BYBLOCK
 62
     0
 10
322.82643
 20
34.667329
 30
0.0
  0
POINT
  5
18A
  8
DEFPOINTS
  6
BYBLOCK
 62
     0
 10
323.52643
 20
34.652329
 30
0.0
  0
POINT
  5
18B
  8
DEFPOINTS
  6
BYBLOCK
 62
     0
 10
323.52643
 20
34.159609
 30
0.0
  0
ENDBLK
  5
18C
  8
0
  0
BLOCK
  8
0
  2
*D7
 70
     1
 10
0.0
 20
0.0
 30
0.0
  3
*D7
  1

  0
LINE
  5
190
  8
0
  6
BYBLOCK
 62
     0
 10
322.42643
 20
34.652329
 30
0.0
 11
322.42643
 21
33.820574
 31
0.0
  0
LINE
  5
191
  8
0
  6
BYBLOCK
 62
     0
 10
324.42643
 20
34.652329
 30
0.0
 11
324.42643
 21
33.820574
 31
0.0
  0
LINE
  5
192
  8
0
  6
BYBLOCK
 62
     0
 10
322.57643
 20
33.835574
 30
0.0
 11
324.27643
 21
33.835574
 31
0.0
  0
SOLID
  5
193
  8
0
  6
BYBLOCK
 62
     0
 10
322.57643
 20
33.860574
 30
0.0
 11
322.57643
 21
33.810574
 31
0.0
 12
322.42643
 22
33.835574
 32
0.0
 13
322.42643
 23
33.835574
 33
0.0
  0
SOLID
  5
194
  8
0
  6
BYBLOCK
 62
     0
 10
324.27643
 20
33.860574
 30
0.0
 11
324.27643
 21
33.810574
 31
0.0
 12
324.42643
 22
33.835574
 32
0.0
 13
324.42643
 23
33.835574
 33
0.0
  0
TEXT
  8
0
  40
0.075
  5
2C6
  62
0
  72
0
  71
0
 10
323.276
 20
33.7778
 30
0.000000
  1
2.00
  7
ROMANC
  0
POINT
  5
196
  8
DEFPOINTS
  6
BYBLOCK
 62
     0
 10
322.42643
 20
34.667329
 30
0.0
  0
POINT
  5
197
  8
DEFPOINTS
  6
BYBLOCK
 62
     0
 10
324.42643
 20
34.667329
 30
0.0
  0
POINT
  5
198
  8
DEFPOINTS
  6
BYBLOCK
 62
     0
 10
324.42643
 20
33.835574
 30
0.0
  0
ENDBLK
  5
199
  8
0
  0
BLOCK
  8
0
  2
*D8
 70
     1
 10
0.0
 20
0.0
 30
0.0
  3
*D8
  1

  0
LINE
  5
19D
  8
0
  6
BYBLOCK
 62
     0
 10
323.19143
 20
34.437329
 30
0.0
 11
324.825377
 21
34.437329
 31
0.0
  0
LINE
  5
19E
  8
0
  6
BYBLOCK
 62
     0
 10
323.54143
 20
34.667329
 30
0.0
 11
324.825377
 21
34.667329
 31
0.0
  0
LINE
  5
19F
  8
0
  6
BYBLOCK
 62
     0
 10
324.810377
 20
34.287329
 30
0.0
 11
324.810377
 21
34.137329
 31
0.0
  0
LINE
  5
1A0
  8
0
  6
BYBLOCK
 62
     0
 10
324.810377
 20
34.817329
 30
0.0
 11
324.810377
 21
34.967329
 31
0.0
  0
LINE
  5
1A1
  8
0
  6
BYBLOCK
 62
     0
 10
324.810377
 20
34.437329
 30
0.0
 11
324.810377
 21
34.667329
 31
0.0
  0
SOLID
  5
1A2
  8
0
  6
BYBLOCK
 62
     0
 10
324.785377
 20
34.287329
 30
0.0
 11
324.835377
 21
34.287329
 31
0.0
 12
324.810377
 22
34.437329
 32
0.0
 13
324.810377
 23
34.437329
 33
0.0
  0
SOLID
  5
1A3
  8
0
  6
BYBLOCK
 62
     0
 10
324.785377
 20
34.817329
 30
0.0
 11
324.835377
 21
34.817329
 31
0.0
 12
324.810377
 22
34.667329
 32
0.0
 13
324.810377
 23
34.667329
 33
0.0
  0
TEXT
  8
0
  40
0.075
  5
2C7
  62
0
  72
0
  71
0
 10
324.585
 20
34.4196
 30
0.000000
  1
0.23
  7
ROMANC
  0
POINT
  5
1A5
  8
DEFPOINTS
  6
BYBLOCK
 62
     0
 10
323.17643
 20
34.437329
 30
0.0
  0
POINT
  5
1A6
  8
DEFPOINTS
  6
BYBLOCK
 62
     0
 10
323.52643
 20
34.667329
 30
0.0
  0
POINT
  5
1A7
  8
DEFPOINTS
  6
BYBLOCK
 62
     0
 10
324.810377
 20
34.667329
 30
0.0
  0
ENDBLK
  5
1A8
  8
0
  0
BLOCK
  8
0
  2
*D9
 70
     1
 10
0.0
 20
0.0
 30
0.0
  3
*D9
  1

  0
LINE
  5
1AC
  8
0
  6
BYBLOCK
 62
     0
 10
324.44143
 20
35.717329
 30
0.0
 11
324.825377
 21
35.717329
 31
0.0
  0
LINE
  5
1AD
  8
0
  6
BYBLOCK
 62
     0
 10
324.44143
 20
34.667329
 30
0.0
 11
324.825377
 21
34.667329
 31
0.0
  0
LINE
  5
1AE
  8
0
  6
BYBLOCK
 62
     0
 10
324.810377
 20
35.567329
 30
0.0
 11
324.810377
 21
34.817329
 31
0.0
  0
SOLID
  5
1AF
  8
0
  6
BYBLOCK
 62
     0
 10
324.785377
 20
35.567329
 30
0.0
 11
324.835377
 21
35.567329
 31
0.0
 12
324.810377
 22
35.717329
 32
0.0
 13
324.810377
 23
35.717329
 33
0.0
  0
SOLID
  5
1B0
  8
0
  6
BYBLOCK
 62
     0
 10
324.785377
 20
34.817329
 30
0.0
 11
324.835377
 21
34.817329
 31
0.0
 12
324.810377
 22
34.667329
 32
0.0
 13
324.810377
 23
34.667329
 33
0.0
  0
TEXT
  8
0
  40
0.075
  5
2C8
  62
0
  72
0
  71
0
 10
324.585
 20
35.0596
 30
0.000000
  1
1.05
  7
ROMANC
  0
POINT
  5
1B2
  8
DEFPOINTS
  6
BYBLOCK
 62
     0
 10
324.42643
 20
35.717329
 30
0.0
  0
POINT
  5
1B3
  8
DEFPOINTS
  6
BYBLOCK
 62
     0
 10
324.42643
 20
34.667329
 30
0.0
  0
POINT
  5
1B4
  8
DEFPOINTS
  6
BYBLOCK
 62
     0
 10
324.810377
 20
34.667329
 30
0.0
  0
ENDBLK
  5
1B5
  8
0
  0
BLOCK
  8
0
  2
*D10
 70
     1
 10
0.0
 20
0.0
 30
0.0
  3
*D10
  1

  0
LINE
  5
1B9
  8
0
  6
BYBLOCK
 62
     0
 10
323.44143
 20
36.237329
 30
0.0
 11
324.825377
 21
36.237329
 31
0.0
  0
LINE
  5
1BA
  8
0
  6
BYBLOCK
 62
     0
 10
324.45643
 20
35.717329
 30
0.0
 11
324.825377
 21
35.717329
 31
0.0
  0
LINE
  5
1BB
  8
0
  6
BYBLOCK
 62
     0
 10
324.810377
 20
36.087329
 30
0.0
 11
324.810377
 21
35.867329
 31
0.0
  0
SOLID
  5
1BC
  8
0
  6
BYBLOCK
 62
     0
 10
324.785377
 20
36.087329
 30
0.0
 11
324.835377
 21
36.087329
 31
0.0
 12
324.810377
 22
36.237329
 32
0.0
 13
324.810377
 23
36.237329
 33
0.0
  0
SOLID
  5
1BD
  8
0
  6
BYBLOCK
 62
     0
 10
324.785377
 20
35.867329
 30
0.0
 11
324.835377
 21
35.867329
 31
0.0
 12
324.810377
 22
35.717329
 32
0.0
 13
324.810377
 23
35.717329
 33
0.0
  0
TEXT
  8
0
  40
0.075
  5
2C9
  62
0
  72
0
  71
0
 10
324.585
 20
35.8446
 30
0.000000
  1
0.52
  7
ROMANC
  0
POINT
  5
1BF
  8
DEFPOINTS
  6
BYBLOCK
 62
     0
 10
323.42643
 20
36.237329
 30
0.0
  0
POINT
  5
1C0
  8
DEFPOINTS
  6
BYBLOCK
 62
     0
 10
324.44143
 20
35.717329
 30
0.0
  0
POINT
  5
1C1
  8
DEFPOINTS
  6
BYBLOCK
 62
     0
 10
324.810377
 20
35.717329
 30
0.0
  0
ENDBLK
  5
1C2
  8
0
  0
BLOCK
  8
0
  2
*D11
 70
     1
 10
0.0
 20
0.0
 30
0.0
  3
*D11
  1

  0
LINE
  5
1C6
  8
0
  6
BYBLOCK
 62
     0
 10
323.44143
 20
36.237329
 30
0.0
 11
325.172811
 21
36.237329
 31
0.0
  0
LINE
  5
1C7
  8
0
  6
BYBLOCK
 62
     0
 10
323.19143
 20
34.437329
 30
0.0
 11
325.172811
 21
34.437329
 31
0.0
  0
LINE
  5
1C8
  8
0
  6
BYBLOCK
 62
     0
 10
325.157811
 20
36.087329
 30
0.0
 11
325.157811
 21
34.587329
 31
0.0
  0
SOLID
  5
1C9
  8
0
  6
BYBLOCK
 62
     0
 10
325.132811
 20
36.087329
 30
0.0
 11
325.182811
 21
36.087329
 31
0.0
 12
325.157811
 22
36.237329
 32
0.0
 13
325.157811
 23
36.237329
 33
0.0
  0
SOLID
  5
1CA
  8
0
  6
BYBLOCK
 62
     0
 10
325.132811
 20
34.587329
 30
0.0
 11
325.182811
 21
34.587329
 31
0.0
 12
325.157811
 22
34.437329
 32
0.0
 13
325.157811
 23
34.437329
 33
0.0
  0
TEXT
  8
0
  40
0.075
  5
2CA
  62
0
  72
0
  71
0
 10
324.933
 20
35.2046
 30
0.000000
  1
1.80
  7
ROMANC
  0
POINT
  5
1CC
  8
DEFPOINTS
  6
BYBLOCK
 62
     0
 10
323.42643
 20
36.237329
 30
0.0
  0
POINT
  5
1CD
  8
DEFPOINTS
  6
BYBLOCK
 62
     0
 10
323.17643
 20
34.437329
 30
0.0
  0
POINT
  5
1CE
  8
DEFPOINTS
  6
BYBLOCK
 62
     0
 10
325.157811
 20
34.437329
 30
0.0
  0
ENDBLK
  5
1CF
  8
0
  0
BLOCK
  8
0
  2
*D12
 70
     1
 10
0.0
 20
0.0
 30
0.0
  3
*D12
  1

  0
LINE
  5
1E8
  8
0
  6
BYBLOCK
 62
     0
 10
323.472755
 20
34.598736
 30
0.0
 11
323.472755
 21
33.982581
 31
0.0
  0
LINE
  5
1E9
  8
0
  6
BYBLOCK
 62
     0
 10
324.072755
 20
34.598736
 30
0.0
 11
324.072755
 21
33.982581
 31
0.0
  0
LINE
  5
1EA
  8
0
  6
BYBLOCK
 62
     0
 10
323.622755
 20
33.997581
 30
0.0
 11
323.922755
 21
33.997581
 31
0.0
  0
SOLID
  5
1EB
  8
0
  6
BYBLOCK
 62
     0
 10
323.622755
 20
34.022581
 30
0.0
 11
323.622755
 21
33.972581
 31
0.0
 12
323.472755
 22
33.997581
 32
0.0
 13
323.472755
 23
33.997581
 33
0.0
  0
SOLID
  5
1EC
  8
0
  6
BYBLOCK
 62
     0
 10
323.922755
 20
34.022581
 30
0.0
 11
323.922755
 21
33.972581
 31
0.0
 12
324.072755
 22
33.997581
 32
0.0
 13
324.072755
 23
33.997581
 33
0.0
  0
TEXT
  8
0
  40
0.075
  5
2CB
  62
0
  72
0
  71
0
 10
323.623
 20
33.9398
 30
0.000000
  1
0.60
  7
ROMANC
  0
POINT
  5
1EE
  8
DEFPOINTS
  6
BYBLOCK
 62
     0
 10
323.472755
 20
34.613736
 30
0.0
  0
POINT
  5
1EF
  8
DEFPOINTS
  6
BYBLOCK
 62
     0
 10
324.072755
 20
34.613736
 30
0.0
  0
POINT
  5
1F0
  8
DEFPOINTS
  6
BYBLOCK
 62
     0
 10
324.072755
 20
33.997581
 30
0.0
  0
ENDBLK
  5
1F1
  8
0
  0
BLOCK
  8
0
  2
*D13
 70
     1
 10
0.0
 20
0.0
 30
0.0
  3
*D13
  1

  0
LINE
  5
1F5
  8
0
  6
BYBLOCK
 62
     0
 10
324.872755
 20
34.598736
 30
0.0
 11
324.872755
 21
33.982581
 31
0.0
  0
LINE
  5
1F6
  8
0
  6
BYBLOCK
 62
     0
 10
325.472755
 20
34.598736
 30
0.0
 11
325.472755
 21
33.982581
 31
0.0
  0
LINE
  5
1F7
  8
0
  6
BYBLOCK
 62
     0
 10
325.022755
 20
33.997581
 30
0.0
 11
325.322755
 21
33.997581
 31
0.0
  0
SOLID
  5
1F8
  8
0
  6
BYBLOCK
 62
     0
 10
325.022755
 20
34.022581
 30
0.0
 11
325.022755
 21
33.972581
 31
0.0
 12
324.872755
 22
33.997581
 32
0.0
 13
324.872755
 23
33.997581
 33
0.0
  0
SOLID
  5
1F9
  8
0
  6
BYBLOCK
 62
     0
 10
325.322755
 20
34.022581
 30
0.0
 11
325.322755
 21
33.972581
 31
0.0
 12
325.472755
 22
33.997581
 32
0.0
 13
325.472755
 23
33.997581
 33
0.0
  0
TEXT
  8
0
  40
0.075
  5
2CC
  62
0
  72
0
  71
0
 10
325.023
 20
33.9398
 30
0.000000
  1
0.60
  7
ROMANC
  0
POINT
  5
1FB
  8
DEFPOINTS
  6
BYBLOCK
 62
     0
 10
324.872755
 20
34.613736
 30
0.0
  0
POINT
  5
1FC
  8
DEFPOINTS
  6
BYBLOCK
 62
     0
 10
325.472755
 20
34.613736
 30
0.0
  0
POINT
  5
1FD
  8
DEFPOINTS
  6
BYBLOCK
 62
     0
 10
325.472755
 20
33.997581
 30
0.0
  0
ENDBLK
  5
1FE
  8
0
  0
BLOCK
  8
0
  2
*D14
 70
     1
 10
0.0
 20
0.0
 30
0.0
  3
*D14
  1

  0
LINE
  5
202
  8
0
  6
BYBLOCK
 62
     0
 10
324.072755
 20
34.598736
 30
0.0
 11
324.072755
 21
33.982581
 31
0.0
  0
LINE
  5
203
  8
0
  6
BYBLOCK
 62
     0
 10
324.872755
 20
34.598736
 30
0.0
 11
324.872755
 21
33.982581
 31
0.0
  0
LINE
  5
204
  8
0
  6
BYBLOCK
 62
     0
 10
324.222755
 20
33.997581
 30
0.0
 11
324.722755
 21
33.997581
 31
0.0
  0
SOLID
  5
205
  8
0
  6
BYBLOCK
 62
     0
 10
324.222755
 20
34.022581
 30
0.0
 11
324.222755
 21
33.972581
 31
0.0
 12
324.072755
 22
33.997581
 32
0.0
 13
324.072755
 23
33.997581
 33
0.0
  0
SOLID
  5
206
  8
0
  6
BYBLOCK
 62
     0
 10
324.722755
 20
34.022581
 30
0.0
 11
324.722755
 21
33.972581
 31
0.0
 12
324.872755
 22
33.997581
 32
0.0
 13
324.872755
 23
33.997581
 33
0.0
  0
TEXT
  8
0
  40
0.075
  5
2CD
  62
0
  72
0
  71
0
 10
324.323
 20
33.9398
 30
0.000000
  1
0.80
  7
ROMANC
  0
POINT
  5
208
  8
DEFPOINTS
  6
BYBLOCK
 62
     0
 10
324.072755
 20
34.613736
 30
0.0
  0
POINT
  5
209
  8
DEFPOINTS
  6
BYBLOCK
 62
     0
 10
324.872755
 20
34.613736
 30
0.0
  0
POINT
  5
20A
  8
DEFPOINTS
  6
BYBLOCK
 62
     0
 10
324.872755
 20
33.997581
 30
0.0
  0
ENDBLK
  5
20B
  8
0
  0
BLOCK
  8
0
  2
*D15
 70
     1
 10
0.0
 20
0.0
 30
0.0
  3
*D15
  1

  0
LINE
  5
20F
  8
0
  6
BYBLOCK
 62
     0
 10
323.472755
 20
34.583736
 30
0.0
 11
323.472755
 21
33.652781
 31
0.0
  0
LINE
  5
210
  8
0
  6
BYBLOCK
 62
     0
 10
325.472755
 20
34.598736
 30
0.0
 11
325.472755
 21
33.652781
 31
0.0
  0
LINE
  5
211
  8
0
  6
BYBLOCK
 62
     0
 10
323.622755
 20
33.667781
 30
0.0
 11
325.322755
 21
33.667781
 31
0.0
  0
SOLID
  5
212
  8
0
  6
BYBLOCK
 62
     0
 10
323.622755
 20
33.692781
 30
0.0
 11
323.622755
 21
33.642781
 31
0.0
 12
323.472755
 22
33.667781
 32
0.0
 13
323.472755
 23
33.667781
 33
0.0
  0
SOLID
  5
213
  8
0
  6
BYBLOCK
 62
     0
 10
325.322755
 20
33.692781
 30
0.0
 11
325.322755
 21
33.642781
 31
0.0
 12
325.472755
 22
33.667781
 32
0.0
 13
325.472755
 23
33.667781
 33
0.0
  0
TEXT
  8
0
  40
0.075
  5
2CE
  62
0
  72
0
  71
0
 10
324.323
 20
33.6100
 30
0.000000
  1
2.00
  7
ROMANC
  0
POINT
  5
215
  8
DEFPOINTS
  6
BYBLOCK
 62
     0
 10
323.472755
 20
34.598736
 30
0.0
  0
POINT
  5
216
  8
DEFPOINTS
  6
BYBLOCK
 62
     0
 10
325.472755
 20
34.613736
 30
0.0
  0
POINT
  5
217
  8
DEFPOINTS
  6
BYBLOCK
 62
     0
 10
325.472755
 20
33.667781
 30
0.0
  0
ENDBLK
  5
218
  8
0
  0
BLOCK
  8
0
  2
*D16
 70
     1
 10
0.0
 20
0.0
 30
0.0
  3
*D16
  1

  0
LINE
  5
21C
  8
0
  6
BYBLOCK
 62
     0
 10
325.487755
 20
35.863736
 30
0.0
 11
325.86768
 21
35.863736
 31
0.0
  0
LINE
  5
21D
  8
0
  6
BYBLOCK
 62
     0
 10
325.487755
 20
34.613736
 30
0.0
 11
325.86768
 21
34.613736
 31
0.0
  0
LINE
  5
21E
  8
0
  6
BYBLOCK
 62
     0
 10
325.85268
 20
35.713736
 30
0.0
 11
325.85268
 21
34.763736
 31
0.0
  0
SOLID
  5
21F
  8
0
  6
BYBLOCK
 62
     0
 10
325.82768
 20
35.713736
 30
0.0
 11
325.87768
 21
35.713736
 31
0.0
 12
325.85268
 22
35.863736
 32
0.0
 13
325.85268
 23
35.863736
 33
0.0
  0
SOLID
  5
220
  8
0
  6
BYBLOCK
 62
     0
 10
325.82768
 20
34.763736
 30
0.0
 11
325.87768
 21
34.763736
 31
0.0
 12
325.85268
 22
34.613736
 32
0.0
 13
325.85268
 23
34.613736
 33
0.0
  0
TEXT
  8
0
  40
0.075
  5
2CF
  62
0
  72
0
  71
0
 10
325.628
 20
35.1060
 30
0.000000
  1
1.25
  7
ROMANC
  0
POINT
  5
222
  8
DEFPOINTS
  6
BYBLOCK
 62
     0
 10
325.472755
 20
35.863736
 30
0.0
  0
POINT
  5
223
  8
DEFPOINTS
  6
BYBLOCK
 62
     0
 10
325.472755
 20
34.613736
 30
0.0
  0
POINT
  5
224
  8
DEFPOINTS
  6
BYBLOCK
 62
     0
 10
325.85268
 20
34.613736
 30
0.0
  0
ENDBLK
  5
225
  8
0
  0
BLOCK
  8
0
  2
*D17
 70
     1
 10
0.0
 20
0.0
 30
0.0
  3
*D17
  1

  0
LINE
  5
229
  8
0
  6
BYBLOCK
 62
     0
 10
324.487755
 20
34.263736
 30
0.0
 11
325.86768
 21
34.263736
 31
0.0
  0
LINE
  5
22A
  8
0
  6
BYBLOCK
 62
     0
 10
324.887755
 20
34.613736
 30
0.0
 11
325.86768
 21
34.613736
 31
0.0
  0
LINE
  5
22B
  8
0
  6
BYBLOCK
 62
     0
 10
325.85268
 20
34.113736
 30
0.0
 11
325.85268
 21
33.963736
 31
0.0
  0
LINE
  5
22C
  8
0
  6
BYBLOCK
 62
     0
 10
325.85268
 20
34.763736
 30
0.0
 11
325.85268
 21
34.913736
 31
0.0
  0
LINE
  5
22D
  8
0
  6
BYBLOCK
 62
     0
 10
325.85268
 20
34.263736
 30
0.0
 11
325.85268
 21
34.613736
 31
0.0
  0
SOLID
  5
22E
  8
0
  6
BYBLOCK
 62
     0
 10
325.82768
 20
34.113736
 30
0.0
 11
325.87768
 21
34.113736
 31
0.0
 12
325.85268
 22
34.263736
 32
0.0
 13
325.85268
 23
34.263736
 33
0.0
  0
SOLID
  5
22F
  8
0
  6
BYBLOCK
 62
     0
 10
325.82768
 20
34.763736
 30
0.0
 11
325.87768
 21
34.763736
 31
0.0
 12
325.85268
 22
34.613736
 32
0.0
 13
325.85268
 23
34.613736
 33
0.0
  0
TEXT
  8
0
  40
0.075
  5
2D0
  62
0
  72
0
  71
0
 10
325.628
 20
34.3060
 30
0.000000
  1
0.35
  7
ROMANC
  0
POINT
  5
231
  8
DEFPOINTS
  6
BYBLOCK
 62
     0
 10
324.472755
 20
34.263736
 30
0.0
  0
POINT
  5
232
  8
DEFPOINTS
  6
BYBLOCK
 62
     0
 10
324.872755
 20
34.613736
 30
0.0
  0
POINT
  5
233
  8
DEFPOINTS
  6
BYBLOCK
 62
     0
 10
325.85268
 20
34.613736
 30
0.0
  0
ENDBLK
  5
234
  8
0
  0
BLOCK
  8
0
  2
*D18
 70
     1
 10
0.0
 20
0.0
 30
0.0
  3
*D18
  1

  0
LINE
  5
238
  8
0
  6
BYBLOCK
 62
     0
 10
324.487755
 20
34.263736
 30
0.0
 11
326.16879
 21
34.263736
 31
0.0
  0
LINE
  5
239
  8
0
  6
BYBLOCK
 62
     0
 10
324.487755
 20
36.363736
 30
0.0
 11
326.16879
 21
36.363736
 31
0.0
  0
LINE
  5
23A
  8
0
  6
BYBLOCK
 62
     0
 10
326.15379
 20
34.413736
 30
0.0
 11
326.15379
 21
36.213736
 31
0.0
  0
SOLID
  5
23B
  8
0
  6
BYBLOCK
 62
     0
 10
326.12879
 20
34.413736
 30
0.0
 11
326.17879
 21
34.413736
 31
0.0
 12
326.15379
 22
34.263736
 32
0.0
 13
326.15379
 23
34.263736
 33
0.0
  0
SOLID
  5
23C
  8
0
  6
BYBLOCK
 62
     0
 10
326.12879
 20
36.213736
 30
0.0
 11
326.17879
 21
36.213736
 31
0.0
 12
326.15379
 22
36.363736
 32
0.0
 13
326.15379
 23
36.363736
 33
0.0
  0
TEXT
  8
0
  40
0.075
  5
2D1
  62
0
  72
0
  71
0
 10
325.929
 20
35.1810
 30
0.000000
  1
2.10
  7
ROMANC
  0
POINT
  5
23E
  8
DEFPOINTS
  6
BYBLOCK
 62
     0
 10
324.472755
 20
34.263736
 30
0.0
  0
POINT
  5
23F
  8
DEFPOINTS
  6
BYBLOCK
 62
     0
 10
324.472755
 20
36.363736
 30
0.0
  0
POINT
  5
240
  8
DEFPOINTS
  6
BYBLOCK
 62
     0
 10
326.15379
 20
36.363736
 30
0.0
  0
ENDBLK
  5
241
  8
0
  0
BLOCK
  8
0
  2
*D19
 70
     1
 10
0.0
 20
0.0
 30
0.0
  3
*D19
  1

  0
LINE
  5
24B
  8
0
  6
BYBLOCK
 62
     0
 10
323.597755
 20
35.863736
 30
0.0
 11
325.347755
 21
35.863736
 31
0.0
  0
SOLID
  5
24C
  8
0
  6
BYBLOCK
 62
     0
 10
323.597755
 20
35.888736
 30
0.0
 11
323.597755
 21
35.838736
 31
0.0
 12
323.447755
 22
35.863736
 32
0.0
 13
323.447755
 23
35.863736
 33
0.0
  0
SOLID
  5
24D
  8
0
  6
BYBLOCK
 62
     0
 10
325.347755
 20
35.888736
 30
0.0
 11
325.347755
 21
35.838736
 31
0.0
 12
325.497755
 22
35.863736
 32
0.0
 13
325.497755
 23
35.863736
 33
0.0
  0
TEXT
  8
0
  40
0.075
  5
2D2
  62
0
  72
0
  71
0
 10
324.323
 20
35.8060
 30
0.000000
  1
2.05
  7
ROMANC
  0
POINT
  5
24F
  8
DEFPOINTS
  6
BYBLOCK
 62
     0
 10
323.447755
 20
35.863736
 30
0.0
  0
POINT
  5
250
  8
DEFPOINTS
  6
BYBLOCK
 62
     0
 10
325.497755
 20
35.863736
 30
0.0
  0
POINT
  5
251
  8
DEFPOINTS
  6
BYBLOCK
 62
     0
 10
325.497755
 20
35.863736
 30
0.0
  0
ENDBLK
  5
252
  8
0
  0
BLOCK
  8
0
  2
*D20
 70
     1
 10
0.0
 20
0.0
 30
0.0
  3
*D20
  1

  0
LINE
  5
256
  8
0
  6
BYBLOCK
 62
     0
 10
325.512755
 20
35.863736
 30
0.0
 11
325.86768
 21
35.863736
 31
0.0
  0
LINE
  5
257
  8
0
  6
BYBLOCK
 62
     0
 10
325.487755
 20
34.613736
 30
0.0
 11
325.86768
 21
34.613736
 31
0.0
  0
LINE
  5
258
  8
0
  6
BYBLOCK
 62
     0
 10
325.85268
 20
35.713736
 30
0.0
 11
325.85268
 21
34.763736
 31
0.0
  0
SOLID
  5
259
  8
0
  6
BYBLOCK
 62
     0
 10
325.82768
 20
35.713736
 30
0.0
 11
325.87768
 21
35.713736
 31
0.0
 12
325.85268
 22
35.863736
 32
0.0
 13
325.85268
 23
35.863736
 33
0.0
  0
SOLID
  5
25A
  8
0
  6
BYBLOCK
 62
     0
 10
325.82768
 20
34.763736
 30
0.0
 11
325.87768
 21
34.763736
 31
0.0
 12
325.85268
 22
34.613736
 32
0.0
 13
325.85268
 23
34.613736
 33
0.0
  0
TEXT
  8
0
  40
0.075
  5
2D3
  62
0
  72
0
  71
0
 10
325.628
 20
35.1060
 30
0.000000
  1
1.25
  7
ROMANC
  0
POINT
  5
25C
  8
DEFPOINTS
  6
BYBLOCK
 62
     0
 10
325.497755
 20
35.863736
 30
0.0
  0
POINT
  5
25D
  8
DEFPOINTS
  6
BYBLOCK
 62
     0
 10
325.472755
 20
34.613736
 30
0.0
  0
POINT
  5
25E
  8
DEFPOINTS
  6
BYBLOCK
 62
     0
 10
325.85268
 20
34.613736
 30
0.0
  0
ENDBLK
  5
25F
  8
0
  0
ENDSEC
  0
SECTION
  2
ENTITIES
  0
LINE
  5
27
  8
0
 10
329.348696
 20
29.863623
 30
0.0
 11
329.348696
 21
44.713623
 31
0.0
  0
LINE
  5
28
  8
0
 10
318.848696
 20
44.713623
 30
0.0
 11
318.848696
 21
29.863623
 31
0.0
  0
LINE
  5
29
  8
0
 10
318.848696
 20
29.863623
 30
0.0
 11
329.348696
 21
29.863623
 31
0.0
  0
TEXT
  5
2A
  8
0
 10
321.66044
 20
42.309482
 30
0.0
 40
0.3
  1
TIPUS   NT346A
  7
ROMANC
  0
TEXT
  5
2D
  8
0
 10
321.622518
 20
40.527599
 30
0.0
 40
0.3
  1
P = 72,2 dm
  7
ROMANC
  0
TEXT
  5
2E
  8
0
 10
321.673534
 20
41.225178
 30
0.0
 40
0.3
  1
S = 346 dm
  7
ROMANC
  0
TEXT
  5
2F
  8
0
 10
321.66044
 20
41.823768
 30
0.0
 40
0.3
  1
ESCALA  1:50
  7
ROMANC
  0
TEXT
  5
30
  8
0
 10
324.861637
 20
41.531094
 30
0.0
 40
0.1
  1
2
  7
ROMANC
  0
LINE
  5
31
  8
0
 10
329.348696
 20
44.713623
 30
0.0
 11
318.848696
 21
44.713623
 31
0.0
  0
LINE
  5
268
  8
0
 10
324.473079
 20
34.598736
 30
0.0
 11
324.498479
 21
35.868749
 31
0.0
  0
ARC
  5
269
  8
0
 10
323.458376
 20
35.063427
 30
0.0
 40
1.315431
 50
37.749582
 51
142.250418
  0
LINE
  5
26A
  8
0
 10
322.418272
 20
35.868749
 30
0.0
 11
322.443673
 21
34.598736
 31
0.0
  0
LINE
  5
26B
  8
0
 10
322.443673
 20
34.598736
 30
0.0
 11
323.045459
 21
34.598736
 31
0.0
  0
ARC
  5
26C
  8
0
 10
323.458376
 20
34.667308
 30
0.0
 40
0.418571
 50
189.428839
 51
350.571161
  0
LINE
  5
26D
  8
0
 10
323.871292
 20
34.598736
 30
0.0
 11
324.473079
 21
34.598736
 31
0.0
  0
LINE
  5
26E
  8
0
 10
324.465727
 20
34.606236
 30
0.0
 11
324.490927
 21
35.866247
 31
0.0
  0
ARC
  5
26F
  8
0
 10
323.458376
 20
35.063427
 30
0.0
 40
1.307931
 50
37.865445
 51
142.134555
  0
LINE
  5
270
  8
0
 10
322.425824
 20
35.866247
 30
0.0
 11
322.451024
 21
34.606236
 31
0.0
  0
LINE
  5
271
  8
0
 10
322.451024
 20
34.606236
 30
0.0
 11
323.051866
 21
34.606236
 31
0.0
  0
ARC
  5
272
  8
0
 10
323.458376
 20
34.667308
 30
0.0
 40
0.411071
 50
188.54386
 51
351.45614
  0
LINE
  5
273
  8
0
 10
323.864885
 20
34.606236
 30
0.0
 11
324.465727
 21
34.606236
 31
0.0
  0
LINE
  5
274
  8
0
 10
324.458376
 20
34.613736
 30
0.0
 11
324.483376
 21
35.863736
 31
0.0
  0
ARC
  5
275
  8
0
 10
323.458376
 20
35.063427
 30
0.0
 40
1.300431
 50
37.98235
 51
142.01765
  0
LINE
  5
276
  8
0
 10
322.433376
 20
35.863736
 30
0.0
 11
322.458376
 21
34.613736
 31
0.0
  0
LINE
  5
277
  8
0
 10
322.458376
 20
34.613736
 30
0.0
 11
323.058376
 21
34.613736
 31
0.0
  0
ARC
  5
278
  8
0
 10
323.458376
 20
34.667308
 30
0.0
 40
0.403571
 50
187.62815
 51
352.37185
  0
LINE
  5
279
  8
0
 10
323.858376
 20
34.613736
 30
0.0
 11
324.458376
 21
34.613736
 31
0.0
  0
LINE
  5
27A
  8
0
  6
BYBLOCK
 62
     0
 10
324.498376
 20
35.863736
 30
0.0
 11
324.853301
 21
35.863736
 31
0.0
  0
LINE
  5
27B
  8
0
  6
BYBLOCK
 62
     0
 10
324.473376
 20
34.613736
 30
0.0
 11
324.853301
 21
34.613736
 31
0.0
  0
LINE
  5
27C
  8
0
  6
BYBLOCK
 62
     0
 10
324.838301
 20
35.713736
 30
0.0
 11
324.838301
 21
34.763736
 31
0.0
  0
SOLID
  5
27D
  8
0
  6
BYBLOCK
 62
     0
 10
324.813301
 20
35.713736
 30
0.0
 11
324.863301
 21
35.713736
 31
0.0
 12
324.838301
 22
35.863736
 32
0.0
 13
324.838301
 23
35.863736
 33
0.0
  0
SOLID
  5
27E
  8
0
  6
BYBLOCK
 62
     0
 10
324.813301
 20
34.763736
 30
0.0
 11
324.863301
 21
34.763736
 31
0.0
 12
324.838301
 22
34.613736
 32
0.0
 13
324.838301
 23
34.613736
 33
0.0
  0
TEXT
  8
0
  40
0.075
  5
2D4
  62
0
  72
0
  71
0
 10
324.613
 20
35.1060
 30
0.000000
  1
1.25
  7
ROMANC
  0
POINT
  5
280
  8
DEFPOINTS
  6
BYBLOCK
 62
     0
 10
324.483376
 20
35.863736
 30
0.0
  0
POINT
  5
281
  8
DEFPOINTS
  6
BYBLOCK
 62
     0
 10
324.458376
 20
34.613736
 30
0.0
  0
POINT
  5
282
  8
DEFPOINTS
  6
BYBLOCK
 62
     0
 10
324.838301
 20
34.613736
 30
0.0
  0
LINE
  5
283
  8
0
  6
BYBLOCK
 62
     0
 10
322.583376
 20
35.863736
 30
0.0
 11
324.333376
 21
35.863736
 31
0.0
  0
SOLID
  5
284
  8
0
  6
BYBLOCK
 62
     0
 10
322.583376
 20
35.888736
 30
0.0
 11
322.583376
 21
35.838736
 31
0.0
 12
322.433376
 22
35.863736
 32
0.0
 13
322.433376
 23
35.863736
 33
0.0
  0
SOLID
  5
285
  8
0
  6
BYBLOCK
 62
     0
 10
324.333376
 20
35.888736
 30
0.0
 11
324.333376
 21
35.838736
 31
0.0
 12
324.483376
 22
35.863736
 32
0.0
 13
324.483376
 23
35.863736
 33
0.0
  0
TEXT
  8
0
  40
0.075
  5
2D5
  62
0
  72
0
  71
0
 10
323.308
 20
35.8060
 30
0.000000
  1
2.05
  7
ROMANC
  0
POINT
  5
287
  8
DEFPOINTS
  6
BYBLOCK
 62
     0
 10
322.433376
 20
35.863736
 30
0.0
  0
POINT
  5
288
  8
DEFPOINTS
  6
BYBLOCK
 62
     0
 10
324.483376
 20
35.863736
 30
0.0
  0
POINT
  5
289
  8
DEFPOINTS
  6
BYBLOCK
 62
     0
 10
324.483376
 20
35.863736
 30
0.0
  0
LINE
  5
28A
  8
0
  6
BYBLOCK
 62
     0
 10
323.473376
 20
34.263736
 30
0.0
 11
325.15441
 21
34.263736
 31
0.0
  0
LINE
  5
28B
  8
0
  6
BYBLOCK
 62
     0
 10
323.473376
 20
36.363736
 30
0.0
 11
325.15441
 21
36.363736
 31
0.0
  0
LINE
  5
28C
  8
0
  6
BYBLOCK
 62
     0
 10
325.13941
 20
34.413736
 30
0.0
 11
325.13941
 21
36.213736
 31
0.0
  0
SOLID
  5
28D
  8
0
  6
BYBLOCK
 62
     0
 10
325.11441
 20
34.413736
 30
0.0
 11
325.16441
 21
34.413736
 31
0.0
 12
325.13941
 22
34.263736
 32
0.0
 13
325.13941
 23
34.263736
 33
0.0
  0
SOLID
  5
28E
  8
0
  6
BYBLOCK
 62
     0
 10
325.11441
 20
36.213736
 30
0.0
 11
325.16441
 21
36.213736
 31
0.0
 12
325.13941
 22
36.363736
 32
0.0
 13
325.13941
 23
36.363736
 33
0.0
  0
TEXT
  8
0
  40
0.075
  5
2D6
  62
0
  72
0
  71
0
 10
324.914
 20
35.1810
 30
0.000000
  1
2.10
  7
ROMANC
  0
POINT
  5
290
  8
DEFPOINTS
  6
BYBLOCK
 62
     0
 10
323.458376
 20
34.263736
 30
0.0
  0
POINT
  5
291
  8
DEFPOINTS
  6
BYBLOCK
 62
     0
 10
323.458376
 20
36.363736
 30
0.0
  0
POINT
  5
292
  8
DEFPOINTS
  6
BYBLOCK
 62
     0
 10
325.13941
 20
36.363736
 30
0.0
  0
LINE
  5
293
  8
0
  6
BYBLOCK
 62
     0
 10
323.473376
 20
34.263736
 30
0.0
 11
324.853301
 21
34.263736
 31
0.0
  0
LINE
  5
294
  8
0
  6
BYBLOCK
 62
     0
 10
323.873376
 20
34.613736
 30
0.0
 11
324.853301
 21
34.613736
 31
0.0
  0
LINE
  5
295
  8
0
  6
BYBLOCK
 62
     0
 10
324.838301
 20
34.113736
 30
0.0
 11
324.838301
 21
33.963736
 31
0.0
  0
LINE
  5
296
  8
0
  6
BYBLOCK
 62
     0
 10
324.838301
 20
34.763736
 30
0.0
 11
324.838301
 21
34.913736
 31
0.0
  0
LINE
  5
297
  8
0
  6
BYBLOCK
 62
     0
 10
324.838301
 20
34.263736
 30
0.0
 11
324.838301
 21
34.613736
 31
0.0
  0
SOLID
  5
298
  8
0
  6
BYBLOCK
 62
     0
 10
324.813301
 20
34.113736
 30
0.0
 11
324.863301
 21
34.113736
 31
0.0
 12
324.838301
 22
34.263736
 32
0.0
 13
324.838301
 23
34.263736
 33
0.0
  0
SOLID
  5
299
  8
0
  6
BYBLOCK
 62
     0
 10
324.813301
 20
34.763736
 30
0.0
 11
324.863301
 21
34.763736
 31
0.0
 12
324.838301
 22
34.613736
 32
0.0
 13
324.838301
 23
34.613736
 33
0.0
  0
TEXT
  8
0
  40
0.075
  5
2D7
  62
0
  72
0
  71
0
 10
324.613
 20
34.3060
 30
0.000000
  1
0.35
  7
ROMANC
  0
POINT
  5
29B
  8
DEFPOINTS
  6
BYBLOCK
 62
     0
 10
323.458376
 20
34.263736
 30
0.0
  0
POINT
  5
29C
  8
DEFPOINTS
  6
BYBLOCK
 62
     0
 10
323.858376
 20
34.613736
 30
0.0
  0
POINT
  5
29D
  8
DEFPOINTS
  6
BYBLOCK
 62
     0
 10
324.838301
 20
34.613736
 30
0.0
  0
LINE
  5
29E
  8
0
  6
BYBLOCK
 62
     0
 10
322.458376
 20
34.583736
 30
0.0
 11
322.458376
 21
33.652781
 31
0.0
  0
LINE
  5
29F
  8
0
  6
BYBLOCK
 62
     0
 10
324.458376
 20
34.598736
 30
0.0
 11
324.458376
 21
33.652781
 31
0.0
  0
LINE
  5
2A0
  8
0
  6
BYBLOCK
 62
     0
 10
322.608376
 20
33.667781
 30
0.0
 11
324.308376
 21
33.667781
 31
0.0
  0
SOLID
  5
2A1
  8
0
  6
BYBLOCK
 62
     0
 10
322.608376
 20
33.692781
 30
0.0
 11
322.608376
 21
33.642781
 31
0.0
 12
322.458376
 22
33.667781
 32
0.0
 13
322.458376
 23
33.667781
 33
0.0
  0
SOLID
  5
2A2
  8
0
  6
BYBLOCK
 62
     0
 10
324.308376
 20
33.692781
 30
0.0
 11
324.308376
 21
33.642781
 31
0.0
 12
324.458376
 22
33.667781
 32
0.0
 13
324.458376
 23
33.667781
 33
0.0
  0
TEXT
  8
0
  40
0.075
  5
2D8
  62
0
  72
0
  71
0
 10
323.308
 20
33.6100
 30
0.000000
  1
2.00
  7
ROMANC
  0
POINT
  5
2A4
  8
DEFPOINTS
  6
BYBLOCK
 62
     0
 10
322.458376
 20
34.598736
 30
0.0
  0
POINT
  5
2A5
  8
DEFPOINTS
  6
BYBLOCK
 62
     0
 10
324.458376
 20
34.613736
 30
0.0
  0
POINT
  5
2A6
  8
DEFPOINTS
  6
BYBLOCK
 62
     0
 10
324.458376
 20
33.667781
 30
0.0
  0
LINE
  5
2A7
  8
0
  6
BYBLOCK
 62
     0
 10
323.058376
 20
34.598736
 30
0.0
 11
323.058376
 21
33.982581
 31
0.0
  0
LINE
  5
2A8
  8
0
  6
BYBLOCK
 62
     0
 10
323.858376
 20
34.598736
 30
0.0
 11
323.858376
 21
33.982581
 31
0.0
  0
LINE
  5
2A9
  8
0
  6
BYBLOCK
 62
     0
 10
323.208376
 20
33.997581
 30
0.0
 11
323.708376
 21
33.997581
 31
0.0
  0
SOLID
  5
2AA
  8
0
  6
BYBLOCK
 62
     0
 10
323.208376
 20
34.022581
 30
0.0
 11
323.208376
 21
33.972581
 31
0.0
 12
323.058376
 22
33.997581
 32
0.0
 13
323.058376
 23
33.997581
 33
0.0
  0
SOLID
  5
2AB
  8
0
  6
BYBLOCK
 62
     0
 10
323.708376
 20
34.022581
 30
0.0
 11
323.708376
 21
33.972581
 31
0.0
 12
323.858376
 22
33.997581
 32
0.0
 13
323.858376
 23
33.997581
 33
0.0
  0
TEXT
  8
0
  40
0.075
  5
2D9
  62
0
  72
0
  71
0
 10
323.308
 20
33.9398
 30
0.000000
  1
0.80
  7
ROMANC
  0
POINT
  5
2AD
  8
DEFPOINTS
  6
BYBLOCK
 62
     0
 10
323.058376
 20
34.613736
 30
0.0
  0
POINT
  5
2AE
  8
DEFPOINTS
  6
BYBLOCK
 62
     0
 10
323.858376
 20
34.613736
 30
0.0
  0
POINT
  5
2AF
  8
DEFPOINTS
  6
BYBLOCK
 62
     0
 10
323.858376
 20
33.997581
 30
0.0
  0
LINE
  5
2B0
  8
0
  6
BYBLOCK
 62
     0
 10
323.858376
 20
34.598736
 30
0.0
 11
323.858376
 21
33.982581
 31
0.0
  0
LINE
  5
2B1
  8
0
  6
BYBLOCK
 62
     0
 10
324.458376
 20
34.598736
 30
0.0
 11
324.458376
 21
33.982581
 31
0.0
  0
LINE
  5
2B2
  8
0
  6
BYBLOCK
 62
     0
 10
324.008376
 20
33.997581
 30
0.0
 11
324.308376
 21
33.997581
 31
0.0
  0
SOLID
  5
2B3
  8
0
  6
BYBLOCK
 62
     0
 10
324.008376
 20
34.022581
 30
0.0
 11
324.008376
 21
33.972581
 31
0.0
 12
323.858376
 22
33.997581
 32
0.0
 13
323.858376
 23
33.997581
 33
0.0
  0
SOLID
  5
2B4
  8
0
  6
BYBLOCK
 62
     0
 10
324.308376
 20
34.022581
 30
0.0
 11
324.308376
 21
33.972581
 31
0.0
 12
324.458376
 22
33.997581
 32
0.0
 13
324.458376
 23
33.997581
 33
0.0
  0
TEXT
  8
0
  40
0.075
  5
2DA
  62
0
  72
0
  71
0
 10
324.008
 20
33.9398
 30
0.000000
  1
0.60
  7
ROMANC
  0
POINT
  5
2B6
  8
DEFPOINTS
  6
BYBLOCK
 62
     0
 10
323.858376
 20
34.613736
 30
0.0
  0
POINT
  5
2B7
  8
DEFPOINTS
  6
BYBLOCK
 62
     0
 10
324.458376
 20
34.613736
 30
0.0
  0
POINT
  5
2B8
  8
DEFPOINTS
  6
BYBLOCK
 62
     0
 10
324.458376
 20
33.997581
 30
0.0
  0
LINE
  5
2B9
  8
0
  6
BYBLOCK
 62
     0
 10
322.458376
 20
34.598736
 30
0.0
 11
322.458376
 21
33.982581
 31
0.0
  0
LINE
  5
2BA
  8
0
  6
BYBLOCK
 62
     0
 10
323.058376
 20
34.598736
 30
0.0
 11
323.058376
 21
33.982581
 31
0.0
  0
LINE
  5
2BB
  8
0
  6
BYBLOCK
 62
     0
 10
322.608376
 20
33.997581
 30
0.0
 11
322.908376
 21
33.997581
 31
0.0
  0
SOLID
  5
2BC
  8
0
  6
BYBLOCK
 62
     0
 10
322.608376
 20
34.022581
 30
0.0
 11
322.608376
 21
33.972581
 31
0.0
 12
322.458376
 22
33.997581
 32
0.0
 13
322.458376
 23
33.997581
 33
0.0
  0
SOLID
  5
2BD
  8
0
  6
BYBLOCK
 62
     0
 10
322.908376
 20
34.022581
 30
0.0
 11
322.908376
 21
33.972581
 31
0.0
 12
323.058376
 22
33.997581
 32
0.0
 13
323.058376
 23
33.997581
 33
0.0
  0
TEXT
  8
0
  40
0.075
  5
2DB
  62
0
  72
0
  71
0
 10
322.608
 20
33.9398
 30
0.000000
  1
0.60
  7
ROMANC
  0
POINT
  5
2BF
  8
DEFPOINTS
  6
BYBLOCK
 62
     0
 10
322.458376
 20
34.613736
 30
0.0
  0
POINT
  5
2C0
  8
DEFPOINTS
  6
BYBLOCK
 62
     0
 10
323.058376
 20
34.613736
 30
0.0
  0
POINT
  5
2C1
  8
DEFPOINTS
  6
BYBLOCK
 62
     0
 10
323.058376
 20
33.997581
 30
0.0
  0
ENDSEC
  0
EOF
