  0
SECTION
  2
HEADER
  9
$ACADVER
  1
AC1009
  9
$INSBASE
 10
0.0
 20
0.0
 30
0.0
  9
$EXTMIN
 10
318.848696
 20
29.863623
 30
0.0
  9
$EXTMAX
 10
329.348696
 20
44.713623
 30
0.0
  9
$LIMMIN
 10
0.0
 20
0.0
  9
$LIMMAX
 10
410.0
 20
287.0
  9
$ORTHOMODE
 70
     1
  9
$REGENMODE
 70
     1
  9
$FILLMODE
 70
     1
  9
$QTEXTMODE
 70
     0
  9
$MIRRTEXT
 70
     1
  9
$DRAGMODE
 70
     2
  9
$LTSCALE
 40
25.0
  9
$OSMODE
 70
     0
  9
$ATTMODE
 70
     1
  9
$TEXTSIZE
 40
0.1
  9
$TRACEWID
 40
1.0
  9
$TEXTSTYLE
  7
ROMANC
  9
$CLAYER
  8
0
  9
$CELTYPE
  6
BYLAYER
  9
$CECOLOR
 62
   256
  9
$DIMSCALE
 40
1.5
  9
$DIMASZ
 40
0.1
  9
$DIMEXO
 40
0.01
  9
$DIMDLI
 40
7.0
  9
$DIMRND
 40
0.0
  9
$DIMDLE
 40
0.0
  9
$DIMEXE
 40
0.01
  9
$DIMTP
 40
0.0
  9
$DIMTM
 40
0.0
  9
$DIMTXT
 40
0.05
  9
$DIMCEN
 40
0.0
  9
$DIMTSZ
 40
0.0
  9
$DIMTOL
 70
     0
  9
$DIMLIM
 70
     0
  9
$DIMTIH
 70
     0
  9
$DIMTOH
 70
     0
  9
$DIMSE1
 70
     0
  9
$DIMSE2
 70
     0
  9
$DIMTAD
 70
     1
  9
$DIMZIN
 70
     0
  9
$DIMBLK
  1

  9
$DIMASO
 70
     1
  9
$DIMSHO
 70
     0
  9
$DIMPOST
  1

  9
$DIMAPOST
  1

  9
$DIMALT
 70
     0
  9
$DIMALTD
 70
     2
  9
$DIMALTF
 40
25.4
  9
$DIMLFAC
 40
1.0
  9
$DIMTOFL
 70
     1
  9
$DIMTVP
 40
0.0
  9
$DIMTIX
 70
     1
  9
$DIMSOXD
 70
     0
  9
$DIMSAH
 70
     0
  9
$DIMBLK1
  1

  9
$DIMBLK2
  1

  9
$DIMSTYLE
  2
MERITXELL
  9
$DIMCLRD
 70
     0
  9
$DIMCLRE
 70
     0
  9
$DIMCLRT
 70
     0
  9
$DIMTFAC
 40
70.0
  9
$DIMGAP
 40
0.025
  9
$LUNITS
 70
     2
  9
$LUPREC
 70
     2
  9
$SKETCHINC
 40
1.0
  9
$FILLETRAD
 40
0.0
  9
$AUNITS
 70
     0
  9
$AUPREC
 70
     0
  9
$MENU
  1
acad
  9
$ELEVATION
 40
0.0
  9
$PELEVATION
 40
0.0
  9
$THICKNESS
 40
0.0
  9
$LIMCHECK
 70
     0
  9
$BLIPMODE
 70
     0
  9
$CHAMFERA
 40
0.0
  9
$CHAMFERB
 40
0.0
  9
$SKPOLY
 70
     0
  9
$TDCREATE
 40
2450927.46195
  9
$TDUPDATE
 40
2450946.543887
  9
$TDINDWG
 40
0.021345
  9
$TDUSRTIMER
 40
0.021345
  9
$USRTIMER
 70
     1
  9
$ANGBASE
 50
0.0
  9
$ANGDIR
 70
     0
  9
$PDMODE
 70
     0
  9
$PDSIZE
 40
0.0
  9
$PLINEWID
 40
0.0
  9
$COORDS
 70
     2
  9
$SPLFRAME
 70
     0
  9
$SPLINETYPE
 70
     6
  9
$SPLINESEGS
 70
     8
  9
$ATTDIA
 70
     0
  9
$ATTREQ
 70
     1
  9
$HANDLING
 70
     1
  9
$HANDSEED
  5
191
  9
$SURFTAB1
 70
     6
  9
$SURFTAB2
 70
     6
  9
$SURFTYPE
 70
     6
  9
$SURFU
 70
     6
  9
$SURFV
 70
     6
  9
$UCSNAME
  2

  9
$UCSORG
 10
0.0
 20
0.0
 30
0.0
  9
$UCSXDIR
 10
1.0
 20
0.0
 30
0.0
  9
$UCSYDIR
 10
0.0
 20
1.0
 30
0.0
  9
$PUCSNAME
  2

  9
$PUCSORG
 10
0.0
 20
0.0
 30
0.0
  9
$PUCSXDIR
 10
1.0
 20
0.0
 30
0.0
  9
$PUCSYDIR
 10
0.0
 20
1.0
 30
0.0
  9
$USERI1
 70
     0
  9
$USERI2
 70
     0
  9
$USERI3
 70
     0
  9
$USERI4
 70
     0
  9
$USERI5
 70
     0
  9
$USERR1
 40
0.0
  9
$USERR2
 40
0.0
  9
$USERR3
 40
0.0
  9
$USERR4
 40
0.0
  9
$USERR5
 40
0.0
  9
$WORLDVIEW
 70
     1
  9
$SHADEDGE
 70
     3
  9
$SHADEDIF
 70
    70
  9
$TILEMODE
 70
     1
  9
$MAXACTVP
 70
    16
  9
$PLIMCHECK
 70
     0
  9
$PEXTMIN
 10
1.000000E+020
 20
1.000000E+020
 30
1.000000E+020
  9
$PEXTMAX
 10
-1.000000E+020
 20
-1.000000E+020
 30
-1.000000E+020
  9
$PLIMMIN
 10
0.0
 20
0.0
  9
$PLIMMAX
 10
12.0
 20
9.0
  9
$UNITMODE
 70
     0
  9
$VISRETAIN
 70
     0
  9
$PLINEGEN
 70
     0
  9
$PSLTSCALE
 70
     0
  0
ENDSEC
  0
SECTION
  2
TABLES
  0
TABLE
  2
VPORT
 70
     2
  0
VPORT
  2
*ACTIVE
 70
     0
 10
0.0
 20
0.0
 11
1.0
 21
1.0
 12
324.100572
 22
37.291695
 13
0.0
 23
0.0
 14
1.0
 24
1.0
 15
10.0
 25
10.0
 16
0.0
 26
0.0
 36
1.0
 17
0.0
 27
0.0
 37
0.0
 40
14.999202
 41
1.675037
 42
50.0
 43
0.0
 44
0.0
 50
0.0
 51
0.0
 71
     0
 72
   100
 73
     1
 74
     0
 75
     0
 76
     0
 77
     0
 78
     1
  0
ENDTAB
  0
TABLE
  2
LTYPE
 70
     1
  0
LTYPE
  2
CONTINUOUS
 70
     0
  3
Solid line
 72
    65
 73
     0
 40
0.0
  0
ENDTAB
  0
TABLE
  2
LAYER
 70
     2
  0
LAYER
  2
0
 70
     0
 62
     7
  6
CONTINUOUS
  0
LAYER
  2
DEFPOINTS
 70
     0
 62
     7
  6
CONTINUOUS
  0
ENDTAB
  0
TABLE
  2
STYLE
 70
     2
  0
STYLE
  2
STANDARD
 70
     0
 40
0.0
 41
1.0
 50
0.0
 71
     0
 42
0.1
  3
txt
  4

  0
STYLE
  2
ROMANC
 70
     0
 40
0.0
 41
1.0
 50
0.0
 71
     0
 42
0.1
  3
romanc
  4

  0
ENDTAB
  0
TABLE
  2
VIEW
 70
     0
  0
ENDTAB
  0
TABLE
  2
UCS
 70
     0
  0
ENDTAB
  0
TABLE
  2
APPID
 70
     1
  0
APPID
  2
ACAD
 70
     0
  0
ENDTAB
  0
TABLE
  2
DIMSTYLE
 70
     1
  0
DIMSTYLE
  2
MERITXELL
 70
     0
  3

  4

  5

  6

  7

 40
1.5
 41
0.1
 42
0.01
 43
7.0
 44
0.01
 45
0.0
 46
0.0
 47
0.0
 48
0.0
140
0.05
141
0.1
142
0.0
143
25.4
144
1.0
145
0.0
146
70.0
147
0.09
 71
     0
 72
     0
 73
     0
 74
     0
 75
     0
 76
     0
 77
     1
 78
     0
170
     0
171
     2
172
     1
173
     0
174
     1
175
     0
176
     0
177
     0
178
     0
  0
ENDTAB
  0
ENDSEC
  0
SECTION
  2
BLOCKS
  0
BLOCK
  8
0
  2
$MODEL_SPACE
 70
     0
 10
0.0
 20
0.0
 30
0.0
  3
$MODEL_SPACE
  1

  0
ENDBLK
  5
24
  8
0
  0
BLOCK
 67
     1
  8
0
  2
$PAPER_SPACE
 70
     0
 10
0.0
 20
0.0
 30
0.0
  3
$PAPER_SPACE
  1

  0
ENDBLK
  5
22
 67
     1
  8
0
  0
BLOCK
  8
0
  2
*D3
 70
     1
 10
0.0
 20
0.0
 30
0.0
  3
*D3
  1

  0
LINE
  5
90
  8
0
  6
BYBLOCK
 62
     0
 10
324.645591
 20
36.219039
 30
0.0
 11
325.103622
 21
36.219039
 31
0.0
  0
LINE
  5
91
  8
0
  6
BYBLOCK
 62
     0
 10
324.645591
 20
34.519039
 30
0.0
 11
325.103622
 21
34.519039
 31
0.0
  0
LINE
  5
92
  8
0
  6
BYBLOCK
 62
     0
 10
325.088622
 20
36.069039
 30
0.0
 11
325.088622
 21
34.669039
 31
0.0
  0
SOLID
  5
93
  8
0
  6
BYBLOCK
 62
     0
 10
325.063622
 20
36.069039
 30
0.0
 11
325.113622
 21
36.069039
 31
0.0
 12
325.088622
 22
36.219039
 32
0.0
 13
325.088622
 23
36.219039
 33
0.0
  0
SOLID
  5
94
  8
0
  6
BYBLOCK
 62
     0
 10
325.063622
 20
34.669039
 30
0.0
 11
325.113622
 21
34.669039
 31
0.0
 12
325.088622
 22
34.519039
 32
0.0
 13
325.088622
 23
34.519039
 33
0.0
  0
TEXT
  8
0
  40
0.075
  5
189
  62
0
  72
0
  71
0
 10
324.864
 20
35.2363
 30
0.000000
  1
1.70
  7
ROMANC
  0
POINT
  5
96
  8
DEFPOINTS
  6
BYBLOCK
 62
     0
 10
324.630591
 20
36.219039
 30
0.0
  0
POINT
  5
97
  8
DEFPOINTS
  6
BYBLOCK
 62
     0
 10
324.630591
 20
34.519039
 30
0.0
  0
POINT
  5
98
  8
DEFPOINTS
  6
BYBLOCK
 62
     0
 10
325.088622
 20
34.519039
 30
0.0
  0
ENDBLK
  5
99
  8
0
  0
BLOCK
  8
0
  2
*D5
 70
     1
 10
0.0
 20
0.0
 30
0.0
  3
*D5
  1

  0
LINE
  5
C0
  8
0
  6
BYBLOCK
 62
     0
 10
322.730591
 20
34.504039
 30
0.0
 11
322.730591
 21
33.951746
 31
0.0
  0
LINE
  5
C1
  8
0
  6
BYBLOCK
 62
     0
 10
324.630591
 20
34.504039
 30
0.0
 11
324.630591
 21
33.951746
 31
0.0
  0
LINE
  5
C2
  8
0
  6
BYBLOCK
 62
     0
 10
322.880591
 20
33.966746
 30
0.0
 11
324.480591
 21
33.966746
 31
0.0
  0
SOLID
  5
C3
  8
0
  6
BYBLOCK
 62
     0
 10
322.880591
 20
33.991746
 30
0.0
 11
322.880591
 21
33.941746
 31
0.0
 12
322.730591
 22
33.966746
 32
0.0
 13
322.730591
 23
33.966746
 33
0.0
  0
SOLID
  5
C4
  8
0
  6
BYBLOCK
 62
     0
 10
324.480591
 20
33.991746
 30
0.0
 11
324.480591
 21
33.941746
 31
0.0
 12
324.630591
 22
33.966746
 32
0.0
 13
324.630591
 23
33.966746
 33
0.0
  0
TEXT
  8
0
  40
0.075
  5
18A
  62
0
  72
0
  71
0
 10
323.531
 20
33.9090
 30
0.000000
  1
1.90
  7
ROMANC
  0
POINT
  5
C6
  8
DEFPOINTS
  6
BYBLOCK
 62
     0
 10
322.730591
 20
34.519039
 30
0.0
  0
POINT
  5
C7
  8
DEFPOINTS
  6
BYBLOCK
 62
     0
 10
324.630591
 20
34.519039
 30
0.0
  0
POINT
  5
C8
  8
DEFPOINTS
  6
BYBLOCK
 62
     0
 10
324.630591
 20
33.966746
 30
0.0
  0
ENDBLK
  5
C9
  8
0
  0
BLOCK
  8
0
  2
*D6
 70
     1
 10
0.0
 20
0.0
 30
0.0
  3
*D6
  1

  0
LINE
  5
107
  8
0
  6
BYBLOCK
 62
     0
 10
324.645591
 20
34.519039
 30
0.0
 11
325.103622
 21
34.519039
 31
0.0
  0
LINE
  5
108
  8
0
  6
BYBLOCK
 62
     0
 10
323.695591
 20
34.369039
 30
0.0
 11
325.103622
 21
34.369039
 31
0.0
  0
LINE
  5
109
  8
0
  6
BYBLOCK
 62
     0
 10
325.088622
 20
34.669039
 30
0.0
 11
325.088622
 21
34.819039
 31
0.0
  0
LINE
  5
10A
  8
0
  6
BYBLOCK
 62
     0
 10
325.088622
 20
34.219039
 30
0.0
 11
325.088622
 21
34.069039
 31
0.0
  0
TEXT
  8
0
  40
0.075
  5
18B
  62
0
  72
0
  71
0
 10
324.851
 20
34.0793
 30
0.000000
  1
0.15
  7
ROMANC
  0
LINE
  5
10C
  8
0
  6
BYBLOCK
 62
     0
 10
325.088622
 20
34.519039
 30
0.0
 11
325.088622
 21
34.369039
 31
0.0
  0
LINE
  5
10D
  8
0
  6
BYBLOCK
 62
     0
 10
325.088622
 20
34.519039
 30
0.0
 11
325.088622
 21
34.369039
 31
0.0
  0
SOLID
  5
10E
  8
0
  6
BYBLOCK
 62
     0
 10
325.063622
 20
34.669039
 30
0.0
 11
325.113622
 21
34.669039
 31
0.0
 12
325.088622
 22
34.519039
 32
0.0
 13
325.088622
 23
34.519039
 33
0.0
  0
SOLID
  5
10F
  8
0
  6
BYBLOCK
 62
     0
 10
325.063622
 20
34.219039
 30
0.0
 11
325.113622
 21
34.219039
 31
0.0
 12
325.088622
 22
34.369039
 32
0.0
 13
325.088622
 23
34.369039
 33
0.0
  0
POINT
  5
110
  8
DEFPOINTS
  6
BYBLOCK
 62
     0
 10
324.630591
 20
34.519039
 30
0.0
  0
POINT
  5
111
  8
DEFPOINTS
  6
BYBLOCK
 62
     0
 10
323.680591
 20
34.369039
 30
0.0
  0
POINT
  5
112
  8
DEFPOINTS
  6
BYBLOCK
 62
     0
 10
325.088622
 20
34.369039
 30
0.0
  0
ENDBLK
  5
113
  8
0
  0
BLOCK
  8
0
  2
*D7
 70
     1
 10
0.0
 20
0.0
 30
0.0
  3
*D7
  1

  0
LINE
  5
116
  8
0
  6
BYBLOCK
 62
     0
 10
324.645591
 20
36.219039
 30
0.0
 11
325.501023
 21
36.219039
 31
0.0
  0
LINE
  5
117
  8
0
  6
BYBLOCK
 62
     0
 10
323.695591
 20
34.369039
 30
0.0
 11
325.501023
 21
34.369039
 31
0.0
  0
LINE
  5
118
  8
0
  6
BYBLOCK
 62
     0
 10
325.486023
 20
36.069039
 30
0.0
 11
325.486023
 21
34.519039
 31
0.0
  0
SOLID
  5
119
  8
0
  6
BYBLOCK
 62
     0
 10
325.461023
 20
36.069039
 30
0.0
 11
325.511023
 21
36.069039
 31
0.0
 12
325.486023
 22
36.219039
 32
0.0
 13
325.486023
 23
36.219039
 33
0.0
  0
SOLID
  5
11A
  8
0
  6
BYBLOCK
 62
     0
 10
325.461023
 20
34.519039
 30
0.0
 11
325.511023
 21
34.519039
 31
0.0
 12
325.486023
 22
34.369039
 32
0.0
 13
325.486023
 23
34.369039
 33
0.0
  0
TEXT
  8
0
  40
0.075
  5
18C
  62
0
  72
0
  71
0
 10
325.261
 20
35.1613
 30
0.000000
  1
1.85
  7
ROMANC
  0
POINT
  5
11C
  8
DEFPOINTS
  6
BYBLOCK
 62
     0
 10
324.630591
 20
36.219039
 30
0.0
  0
POINT
  5
11D
  8
DEFPOINTS
  6
BYBLOCK
 62
     0
 10
323.680591
 20
34.369039
 30
0.0
  0
POINT
  5
11E
  8
DEFPOINTS
  6
BYBLOCK
 62
     0
 10
325.486023
 20
34.369039
 30
0.0
  0
ENDBLK
  5
11F
  8
0
  0
ENDSEC
  0
SECTION
  2
ENTITIES
  0
LINE
  5
27
  8
0
 10
329.348696
 20
29.863623
 30
0.0
 11
329.348696
 21
44.713623
 31
0.0
  0
LINE
  5
28
  8
0
 10
318.848696
 20
44.713623
 30
0.0
 11
318.848696
 21
29.863623
 31
0.0
  0
LINE
  5
29
  8
0
 10
318.848696
 20
29.863623
 30
0.0
 11
329.348696
 21
29.863623
 31
0.0
  0
TEXT
  5
2A
  8
0
 10
321.378668
 20
42.309482
 30
0.0
 40
0.3
  1
TIPUS   NT342
  7
ROMANC
  0
TEXT
  5
2D
  8
0
 10
321.340746
 20
40.527599
 30
0.0
 40
0.3
  1
P = 72,3dm
  7
ROMANC
  0
TEXT
  5
2E
  8
0
 10
321.391762
 20
41.225178
 30
0.0
 40
0.3
  1
S = 342  dm
  7
ROMANC
  0
TEXT
  5
2F
  8
0
 10
321.378668
 20
41.823768
 30
0.0
 40
0.3
  1
ESCALA  1:50
  7
ROMANC
  0
TEXT
  5
30
  8
0
 10
324.850292
 20
41.531094
 30
0.0
 40
0.1
  1
2
  7
ROMANC
  0
LINE
  5
31
  8
0
 10
329.348696
 20
44.713623
 30
0.0
 11
318.848696
 21
44.713623
 31
0.0
  0
LINE
  5
155
  8
0
 10
322.715591
 20
34.508151
 30
0.0
 11
322.715591
 21
36.234039
 31
0.0
  0
LINE
  5
156
  8
0
 10
322.715591
 20
36.234039
 30
0.0
 11
324.645591
 21
36.234039
 31
0.0
  0
LINE
  5
157
  8
0
 10
324.645591
 20
36.234039
 30
0.0
 11
324.645591
 21
34.508151
 31
0.0
  0
ARC
  5
158
  8
0
 10
323.680591
 20
37.451622
 30
0.0
 40
3.09762
 50
251.84857
 51
288.15143
  0
LINE
  5
159
  8
0
 10
322.723091
 20
34.51359
 30
0.0
 11
322.723091
 21
36.226539
 31
0.0
  0
LINE
  5
15A
  8
0
 10
322.723091
 20
36.226539
 30
0.0
 11
324.638091
 21
36.226539
 31
0.0
  0
LINE
  5
15B
  8
0
 10
324.638091
 20
36.226539
 30
0.0
 11
324.638091
 21
34.51359
 31
0.0
  0
ARC
  5
15C
  8
0
 10
323.680591
 20
37.451622
 30
0.0
 40
3.09012
 50
251.949295
 51
288.050705
  0
LINE
  5
15D
  8
0
 10
322.730591
 20
34.519039
 30
0.0
 11
322.730591
 21
36.219039
 31
0.0
  0
LINE
  5
15E
  8
0
 10
322.730591
 20
36.219039
 30
0.0
 11
324.630591
 21
36.219039
 31
0.0
  0
LINE
  5
15F
  8
0
 10
324.630591
 20
36.219039
 30
0.0
 11
324.630591
 21
34.519039
 31
0.0
  0
ARC
  5
160
  8
0
 10
323.680591
 20
37.451622
 30
0.0
 40
3.08262
 50
252.050452
 51
287.949548
  0
LINE
  5
161
  8
0
  6
BYBLOCK
 62
     0
 10
324.645591
 20
36.219039
 30
0.0
 11
325.501023
 21
36.219039
 31
0.0
  0
LINE
  5
162
  8
0
  6
BYBLOCK
 62
     0
 10
323.695591
 20
34.369039
 30
0.0
 11
325.501023
 21
34.369039
 31
0.0
  0
LINE
  5
163
  8
0
  6
BYBLOCK
 62
     0
 10
325.486023
 20
36.069039
 30
0.0
 11
325.486023
 21
34.519039
 31
0.0
  0
SOLID
  5
164
  8
0
  6
BYBLOCK
 62
     0
 10
325.461023
 20
36.069039
 30
0.0
 11
325.511023
 21
36.069039
 31
0.0
 12
325.486023
 22
36.219039
 32
0.0
 13
325.486023
 23
36.219039
 33
0.0
  0
SOLID
  5
165
  8
0
  6
BYBLOCK
 62
     0
 10
325.461023
 20
34.519039
 30
0.0
 11
325.511023
 21
34.519039
 31
0.0
 12
325.486023
 22
34.369039
 32
0.0
 13
325.486023
 23
34.369039
 33
0.0
  0
TEXT
  8
0
  40
0.075
  5
18D
  62
0
  72
0
  71
0
 10
325.261
 20
35.1613
 30
0.000000
  1
1.85
  7
ROMANC
  0
POINT
  5
167
  8
DEFPOINTS
  6
BYBLOCK
 62
     0
 10
324.630591
 20
36.219039
 30
0.0
  0
POINT
  5
168
  8
DEFPOINTS
  6
BYBLOCK
 62
     0
 10
323.680591
 20
34.369039
 30
0.0
  0
POINT
  5
169
  8
DEFPOINTS
  6
BYBLOCK
 62
     0
 10
325.486023
 20
34.369039
 30
0.0
  0
LINE
  5
16A
  8
0
  6
BYBLOCK
 62
     0
 10
324.645591
 20
34.519039
 30
0.0
 11
325.103622
 21
34.519039
 31
0.0
  0
LINE
  5
16B
  8
0
  6
BYBLOCK
 62
     0
 10
323.695591
 20
34.369039
 30
0.0
 11
325.103622
 21
34.369039
 31
0.0
  0
LINE
  5
16C
  8
0
  6
BYBLOCK
 62
     0
 10
325.088622
 20
34.669039
 30
0.0
 11
325.088622
 21
34.819039
 31
0.0
  0
LINE
  5
16D
  8
0
  6
BYBLOCK
 62
     0
 10
325.088622
 20
34.219039
 30
0.0
 11
325.088622
 21
34.069039
 31
0.0
  0
TEXT
  8
0
  40
0.075
  5
18E
  62
0
  72
0
  71
0
 10
324.851
 20
34.0793
 30
0.000000
  1
0.15
  7
ROMANC
  0
LINE
  5
16F
  8
0
  6
BYBLOCK
 62
     0
 10
325.088622
 20
34.519039
 30
0.0
 11
325.088622
 21
34.369039
 31
0.0
  0
LINE
  5
170
  8
0
  6
BYBLOCK
 62
     0
 10
325.088622
 20
34.519039
 30
0.0
 11
325.088622
 21
34.369039
 31
0.0
  0
SOLID
  5
171
  8
0
  6
BYBLOCK
 62
     0
 10
325.063622
 20
34.669039
 30
0.0
 11
325.113622
 21
34.669039
 31
0.0
 12
325.088622
 22
34.519039
 32
0.0
 13
325.088622
 23
34.519039
 33
0.0
  0
SOLID
  5
172
  8
0
  6
BYBLOCK
 62
     0
 10
325.063622
 20
34.219039
 30
0.0
 11
325.113622
 21
34.219039
 31
0.0
 12
325.088622
 22
34.369039
 32
0.0
 13
325.088622
 23
34.369039
 33
0.0
  0
POINT
  5
173
  8
DEFPOINTS
  6
BYBLOCK
 62
     0
 10
324.630591
 20
34.519039
 30
0.0
  0
POINT
  5
174
  8
DEFPOINTS
  6
BYBLOCK
 62
     0
 10
323.680591
 20
34.369039
 30
0.0
  0
POINT
  5
175
  8
DEFPOINTS
  6
BYBLOCK
 62
     0
 10
325.088622
 20
34.369039
 30
0.0
  0
LINE
  5
176
  8
0
  6
BYBLOCK
 62
     0
 10
322.730591
 20
34.504039
 30
0.0
 11
322.730591
 21
33.951746
 31
0.0
  0
LINE
  5
177
  8
0
  6
BYBLOCK
 62
     0
 10
324.630591
 20
34.504039
 30
0.0
 11
324.630591
 21
33.951746
 31
0.0
  0
LINE
  5
178
  8
0
  6
BYBLOCK
 62
     0
 10
322.880591
 20
33.966746
 30
0.0
 11
324.480591
 21
33.966746
 31
0.0
  0
SOLID
  5
179
  8
0
  6
BYBLOCK
 62
     0
 10
322.880591
 20
33.991746
 30
0.0
 11
322.880591
 21
33.941746
 31
0.0
 12
322.730591
 22
33.966746
 32
0.0
 13
322.730591
 23
33.966746
 33
0.0
  0
SOLID
  5
17A
  8
0
  6
BYBLOCK
 62
     0
 10
324.480591
 20
33.991746
 30
0.0
 11
324.480591
 21
33.941746
 31
0.0
 12
324.630591
 22
33.966746
 32
0.0
 13
324.630591
 23
33.966746
 33
0.0
  0
TEXT
  8
0
  40
0.075
  5
18F
  62
0
  72
0
  71
0
 10
323.531
 20
33.9090
 30
0.000000
  1
1.90
  7
ROMANC
  0
POINT
  5
17C
  8
DEFPOINTS
  6
BYBLOCK
 62
     0
 10
322.730591
 20
34.519039
 30
0.0
  0
POINT
  5
17D
  8
DEFPOINTS
  6
BYBLOCK
 62
     0
 10
324.630591
 20
34.519039
 30
0.0
  0
POINT
  5
17E
  8
DEFPOINTS
  6
BYBLOCK
 62
     0
 10
324.630591
 20
33.966746
 30
0.0
  0
LINE
  5
17F
  8
0
  6
BYBLOCK
 62
     0
 10
324.645591
 20
36.219039
 30
0.0
 11
325.103622
 21
36.219039
 31
0.0
  0
LINE
  5
180
  8
0
  6
BYBLOCK
 62
     0
 10
324.645591
 20
34.519039
 30
0.0
 11
325.103622
 21
34.519039
 31
0.0
  0
LINE
  5
181
  8
0
  6
BYBLOCK
 62
     0
 10
325.088622
 20
36.069039
 30
0.0
 11
325.088622
 21
34.669039
 31
0.0
  0
SOLID
  5
182
  8
0
  6
BYBLOCK
 62
     0
 10
325.063622
 20
36.069039
 30
0.0
 11
325.113622
 21
36.069039
 31
0.0
 12
325.088622
 22
36.219039
 32
0.0
 13
325.088622
 23
36.219039
 33
0.0
  0
SOLID
  5
183
  8
0
  6
BYBLOCK
 62
     0
 10
325.063622
 20
34.669039
 30
0.0
 11
325.113622
 21
34.669039
 31
0.0
 12
325.088622
 22
34.519039
 32
0.0
 13
325.088622
 23
34.519039
 33
0.0
  0
TEXT
  8
0
  40
0.075
  5
190
  62
0
  72
0
  71
0
 10
324.864
 20
35.2363
 30
0.000000
  1
1.70
  7
ROMANC
  0
POINT
  5
185
  8
DEFPOINTS
  6
BYBLOCK
 62
     0
 10
324.630591
 20
36.219039
 30
0.0
  0
POINT
  5
186
  8
DEFPOINTS
  6
BYBLOCK
 62
     0
 10
324.630591
 20
34.519039
 30
0.0
  0
POINT
  5
187
  8
DEFPOINTS
  6
BYBLOCK
 62
     0
 10
325.088622
 20
34.519039
 30
0.0
  0
ENDSEC
  0
EOF
