  0
SECTION
  2
HEADER
  9
$ACADVER
  1
AC1009
  9
$INSBASE
 10
245.282145
 20
-4.23377
 30
0.0
  9
$EXTMIN
 10
245.282145
 20
-4.23377
 30
0.0
  9
$EXTMAX
 10
255.782145
 20
10.61623
 30
0.0
  9
$LIMMIN
 10
0.0
 20
0.0
  9
$LIMMAX
 10
410.0
 20
287.0
  9
$ORTHOMODE
 70
     0
  9
$REGENMODE
 70
     1
  9
$FILLMODE
 70
     1
  9
$QTEXTMODE
 70
     0
  9
$MIRRTEXT
 70
     1
  9
$DRAGMODE
 70
     2
  9
$LTSCALE
 40
25.0
  9
$OSMODE
 70
    32
  9
$ATTMODE
 70
     1
  9
$TEXTSIZE
 40
0.1
  9
$TRACEWID
 40
1.0
  9
$TEXTSTYLE
  7
ROMANC
  9
$CLAYER
  8
0
  9
$CELTYPE
  6
BYLAYER
  9
$CECOLOR
 62
   256
  9
$DIMSCALE
 40
0.0
  9
$DIMASZ
 40
0.0
  9
$DIMEXO
 40
0.1
  9
$DIMDLI
 40
7.0
  9
$DIMRND
 40
0.0
  9
$DIMDLE
 40
0.0
  9
$DIMEXE
 40
1.8
  9
$DIMTP
 40
0.0
  9
$DIMTM
 40
0.0
  9
$DIMTXT
 40
0.03
  9
$DIMCEN
 40
1.5
  9
$DIMTSZ
 40
1.0
  9
$DIMTOL
 70
     0
  9
$DIMLIM
 70
     0
  9
$DIMTIH
 70
     0
  9
$DIMTOH
 70
     0
  9
$DIMSE1
 70
     0
  9
$DIMSE2
 70
     0
  9
$DIMTAD
 70
     0
  9
$DIMZIN
 70
     0
  9
$DIMBLK
  1

  9
$DIMASO
 70
     1
  9
$DIMSHO
 70
     0
  9
$DIMPOST
  1

  9
$DIMAPOST
  1

  9
$DIMALT
 70
     0
  9
$DIMALTD
 70
     2
  9
$DIMALTF
 40
25.4
  9
$DIMLFAC
 40
1.0
  9
$DIMTOFL
 70
     1
  9
$DIMTVP
 40
0.0
  9
$DIMTIX
 70
     1
  9
$DIMSOXD
 70
     0
  9
$DIMSAH
 70
     0
  9
$DIMBLK1
  1

  9
$DIMBLK2
  1

  9
$DIMSTYLE
  2
*UNNAMED
  9
$DIMCLRD
 70
     0
  9
$DIMCLRE
 70
     0
  9
$DIMCLRT
 70
     0
  9
$DIMTFAC
 40
116.666667
  9
$DIMGAP
 40
0.09
  9
$LUNITS
 70
     2
  9
$LUPREC
 70
     2
  9
$SKETCHINC
 40
1.0
  9
$FILLETRAD
 40
0.0
  9
$AUNITS
 70
     0
  9
$AUPREC
 70
     0
  9
$MENU
  1
acad
  9
$ELEVATION
 40
0.0
  9
$PELEVATION
 40
0.0
  9
$THICKNESS
 40
0.0
  9
$LIMCHECK
 70
     0
  9
$BLIPMODE
 70
     0
  9
$CHAMFERA
 40
0.0
  9
$CHAMFERB
 40
0.0
  9
$SKPOLY
 70
     0
  9
$TDCREATE
 40
2449967.730282638
  9
$TDUPDATE
 40
2450721.676607638
  9
$TDINDWG
 40
0.0034550926
  9
$TDUSRTIMER
 40
0.0034550926
  9
$USRTIMER
 70
     1
  9
$ANGBASE
 50
0.0
  9
$ANGDIR
 70
     0
  9
$PDMODE
 70
     0
  9
$PDSIZE
 40
0.0
  9
$PLINEWID
 40
0.0
  9
$COORDS
 70
     0
  9
$SPLFRAME
 70
     0
  9
$SPLINETYPE
 70
     6
  9
$SPLINESEGS
 70
     8
  9
$ATTDIA
 70
     0
  9
$ATTREQ
 70
     1
  9
$HANDLING
 70
     0
  9
$HANDSEED
  5
0
  9
$SURFTAB1
 70
     6
  9
$SURFTAB2
 70
     6
  9
$SURFTYPE
 70
     6
  9
$SURFU
 70
     6
  9
$SURFV
 70
     6
  9
$UCSNAME
  2

  9
$UCSORG
 10
0.0
 20
0.0
 30
0.0
  9
$UCSXDIR
 10
1.0
 20
0.0
 30
0.0
  9
$UCSYDIR
 10
0.0
 20
1.0
 30
0.0
  9
$PUCSNAME
  2

  9
$PUCSORG
 10
0.0
 20
0.0
 30
0.0
  9
$PUCSXDIR
 10
1.0
 20
0.0
 30
0.0
  9
$PUCSYDIR
 10
0.0
 20
1.0
 30
0.0
  9
$USERI1
 70
     0
  9
$USERI2
 70
     0
  9
$USERI3
 70
     0
  9
$USERI4
 70
     0
  9
$USERI5
 70
     0
  9
$USERR1
 40
0.0
  9
$USERR2
 40
0.0
  9
$USERR3
 40
0.0
  9
$USERR4
 40
0.0
  9
$USERR5
 40
0.0
  9
$WORLDVIEW
 70
     1
  9
$SHADEDGE
 70
     3
  9
$SHADEDIF
 70
    70
  9
$TILEMODE
 70
     1
  9
$MAXACTVP
 70
    16
  9
$PINSBASE
 10
0.0
 20
0.0
 30
0.0
  9
$PLIMCHECK
 70
     0
  9
$PEXTMIN
 10
1.000000E+20
 20
1.000000E+20
 30
1.000000E+20
  9
$PEXTMAX
 10
-1.000000E+20
 20
-1.000000E+20
 30
-1.000000E+20
  9
$PLIMMIN
 10
0.0
 20
0.0
  9
$PLIMMAX
 10
12.0
 20
9.0
  9
$UNITMODE
 70
     0
  9
$VISRETAIN
 70
     0
  9
$PLINEGEN
 70
     0
  9
$PSLTSCALE
 70
     0
  9
$TREEDEPTH
 70
  3020
  9
$DWGCODEPAGE
  3
iso8859-1
  0
ENDSEC
  0
SECTION
  2
TABLES
  0
TABLE
  2
VPORT
 70
     2
  0
VPORT
  2
*ACTIVE
 70
     0
 10
0.0
 20
0.0
 11
1.0
 21
1.0
 12
257.596483
 22
3.410027
 13
0.0
 23
0.0
 14
1.0
 24
1.0
 15
10.0
 25
10.0
 16
0.0
 26
0.0
 36
1.0
 17
0.0
 27
0.0
 37
0.0
 40
15.287595
 41
1.611024
 42
50.0
 43
0.0
 44
0.0
 50
0.0
 51
0.0
 71
     0
 72
   100
 73
     1
 74
     0
 75
     0
 76
     0
 77
     0
 78
     1
  0
ENDTAB
  0
TABLE
  2
LTYPE
 70
     1
  0
LTYPE
  2
CONTINUOUS
 70
    64
  3
Solid line
 72
    65
 73
     0
 40
0.0
  0
ENDTAB
  0
TABLE
  2
LAYER
 70
     1
  0
LAYER
  2
0
 70
    64
 62
     7
  6
CONTINUOUS
  0
ENDTAB
  0
TABLE
  2
STYLE
 70
     2
  0
STYLE
  2
STANDARD
 70
     0
 40
0.0
 41
1.0
 50
0.0
 71
     0
 42
0.1
  3
txt
  4

  0
STYLE
  2
ROMANC
 70
    64
 40
0.0
 41
1.0
 50
0.0
 71
     0
 42
0.1
  3
romanc
  4

  0
ENDTAB
  0
TABLE
  2
VIEW
 70
     0
  0
ENDTAB
  0
TABLE
  2
UCS
 70
     0
  0
ENDTAB
  0
TABLE
  2
APPID
 70
     1
  0
APPID
  2
ACAD
 70
    64
  0
ENDTAB
  0
TABLE
  2
DIMSTYLE
 70
     0
  0
ENDTAB
  0
ENDSEC
  0
SECTION
  2
BLOCKS
  0
ENDSEC
  0
SECTION
  2
ENTITIES
  0
LINE
  8
0
 10
255.782145
 20
-4.23377
 30
0.0
 11
255.782145
 21
10.61623
 31
0.0
  0
LINE
  8
0
 10
245.282145
 20
10.61623
 30
0.0
 11
245.282145
 21
-4.23377
 31
0.0
  0
LINE
  8
0
 10
245.282145
 20
-4.23377
 30
0.0
 11
255.782145
 21
-4.23377
 31
0.0
  0
TEXT
  8
0
 10
249.006808
 20
0.573531
 30
0.0
 40
0.1
  1
0.60
  7
ROMANC
  0
TEXT
  8
0
 10
248.210031
 20
0.573531
 30
0.0
 40
0.1
  1
0.95
  7
ROMANC
  0
TEXT
  8
0
 10
249.852615
 20
0.598031
 30
0.0
 40
0.1
  1
0.95
  7
ROMANC
  0
POLYLINE
  8
0
 66
     1
 10
0.0
 20
0.0
 30
0.0
 70
     1
  0
VERTEX
  8
0
 10
249.43531
 20
1.37291
 30
0.0
 42
-0.014483
  0
VERTEX
  8
0
 10
249.435685
 20
1.359967
 30
0.0
 42
-0.110352
  0
VERTEX
  8
0
 10
249.414427
 20
1.264819
 30
0.0
 42
-0.102639
 50
41.370233
  0
VERTEX
  8
0
 10
249.351208
 20
1.180648
 30
0.0
 42
-0.093333
 70
     2
 50
41.370233
  0
VERTEX
  8
0
 10
249.25875
 20
1.125738
 30
0.0
 42
-0.087672
  0
VERTEX
  8
0
 10
249.145685
 20
1.105759
 30
0.0
 42
-0.087672
  0
VERTEX
  8
0
 10
249.03262
 20
1.125738
 30
0.0
 42
-0.093333
 50
318.629767
  0
VERTEX
  8
0
 10
248.940162
 20
1.180648
 30
0.0
 42
-0.102639
 70
     2
 50
318.629767
  0
VERTEX
  8
0
 10
248.876943
 20
1.264819
 30
0.0
 42
-0.121681
  0
VERTEX
  8
0
 10
248.855908
 20
1.369961
 30
0.0
  0
VERTEX
  8
0
 10
247.905717
 20
1.370567
 30
0.0
  0
VERTEX
  8
0
 10
247.916404
 20
2.194155
 30
0.0
 42
-0.186471
  0
VERTEX
  8
0
 10
247.986876
 20
2.376545
 30
0.0
 42
-0.101736
 50
204.512986
  0
VERTEX
  8
0
 10
248.27667
 20
2.588107
 30
0.0
 42
-0.060361
 70
     2
 50
204.512986
  0
VERTEX
  8
0
 10
248.650813
 20
2.706825
 30
0.0
 42
-0.046704
  0
VERTEX
  8
0
 10
249.156404
 20
2.754155
 30
0.0
 42
-0.046704
  0
VERTEX
  8
0
 10
249.661995
 20
2.706825
 30
0.0
 42
-0.060361
 50
155.487014
  0
VERTEX
  8
0
 10
250.036139
 20
2.588107
 30
0.0
 42
-0.101736
 70
     2
 50
155.487014
  0
VERTEX
  8
0
 10
250.326091
 20
2.376375
 30
0.0
 42
-0.190485
  0
VERTEX
  8
0
 10
250.392576
 20
2.211928
 30
0.0
 42
-0.048045
  0
VERTEX
  8
0
 10
250.392963
 20
2.150766
 30
0.0
  0
VERTEX
  8
0
 10
250.383037
 20
1.37291
 30
0.0
  0
SEQEND
  8
0
  0
POLYLINE
  8
0
 66
     1
 10
0.0
 20
0.0
 30
0.0
 70
     1
  0
VERTEX
  8
0
 10
249.455583
 20
1.35291
 30
0.0
 42
-0.103024
  0
VERTEX
  8
0
 10
249.432525
 20
1.256307
 30
0.0
 42
-0.102639
 50
41.370233
  0
VERTEX
  8
0
 10
249.364426
 20
1.165639
 30
0.0
 42
-0.093333
 70
     2
 50
41.370233
  0
VERTEX
  8
0
 10
249.265604
 20
1.106949
 30
0.0
 42
-0.087672
  0
VERTEX
  8
0
 10
249.145685
 20
1.085759
 30
0.0
 42
-0.087672
  0
VERTEX
  8
0
 10
249.025766
 20
1.106949
 30
0.0
 42
-0.093333
 50
318.629767
  0
VERTEX
  8
0
 10
248.926944
 20
1.165639
 30
0.0
 42
-0.102639
 70
     2
 50
318.629767
  0
VERTEX
  8
0
 10
248.858845
 20
1.256307
 30
0.0
 42
-0.099977
  0
VERTEX
  8
0
 10
248.83589
 20
1.349974
 30
0.0
  0
VERTEX
  8
0
 10
247.885456
 20
1.35058
 30
0.0
  0
VERTEX
  8
0
 10
247.896404
 20
2.194221
 30
0.0
 42
-0.186413
  0
VERTEX
  8
0
 10
247.972071
 20
2.389993
 30
0.0
 42
-0.101736
 50
204.512986
  0
VERTEX
  8
0
 10
248.268372
 20
2.606305
 30
0.0
 42
-0.060361
 70
     2
 50
204.512986
  0
VERTEX
  8
0
 10
248.647101
 20
2.726478
 30
0.0
 42
-0.046704
  0
VERTEX
  8
0
 10
249.156404
 20
2.774155
 30
0.0
 42
-0.046704
  0
VERTEX
  8
0
 10
249.665707
 20
2.726478
 30
0.0
 42
-0.060361
 50
155.487014
  0
VERTEX
  8
0
 10
250.044437
 20
2.606305
 30
0.0
 42
-0.101704
 70
     2
 50
155.487014
  0
VERTEX
  8
0
 10
250.340659
 20
2.390078
 30
0.0
 42
-0.189426
  0
VERTEX
  8
0
 10
250.412566
 20
2.213034
 30
0.0
 42
-0.046771
  0
VERTEX
  8
0
 10
250.412952
 20
2.149753
 30
0.0
  0
VERTEX
  8
0
 10
250.402784
 20
1.35291
 30
0.0
  0
SEQEND
  8
0
  0
POLYLINE
  8
0
 66
     1
 10
0.0
 20
0.0
 30
0.0
 70
     1
  0
VERTEX
  8
0
 10
249.445666
 20
1.36291
 30
0.0
 42
-0.00315
  0
VERTEX
  8
0
 10
249.445685
 20
1.359967
 30
0.0
 42
-0.110352
  0
VERTEX
  8
0
 10
249.423476
 20
1.260563
 30
0.0
 42
-0.102639
 50
41.370233
  0
VERTEX
  8
0
 10
249.357817
 20
1.173144
 30
0.0
 42
-0.093333
 70
     2
 50
41.370233
  0
VERTEX
  8
0
 10
249.262177
 20
1.116343
 30
0.0
 42
-0.087672
  0
VERTEX
  8
0
 10
249.145685
 20
1.095759
 30
0.0
 42
-0.087672
  0
VERTEX
  8
0
 10
249.029193
 20
1.116343
 30
0.0
 42
-0.093333
 50
318.629767
  0
VERTEX
  8
0
 10
248.933553
 20
1.173144
 30
0.0
 42
-0.102639
 70
     2
 50
318.629767
  0
VERTEX
  8
0
 10
248.867894
 20
1.260563
 30
0.0
 42
-0.110352
  0
VERTEX
  8
0
 10
248.845685
 20
1.359967
 30
0.0
  0
VERTEX
  8
0
 10
247.895587
 20
1.360573
 30
0.0
  0
VERTEX
  8
0
 10
247.906404
 20
2.194155
 30
0.0
 42
-0.186471
  0
VERTEX
  8
0
 10
247.979474
 20
2.383269
 30
0.0
 42
-0.101736
 50
204.512986
  0
VERTEX
  8
0
 10
248.272521
 20
2.597206
 30
0.0
 42
-0.060361
 70
     2
 50
204.512986
  0
VERTEX
  8
0
 10
248.648957
 20
2.716651
 30
0.0
 42
-0.046704
  0
VERTEX
  8
0
 10
249.156404
 20
2.764155
 30
0.0
 42
-0.046704
  0
VERTEX
  8
0
 10
249.663851
 20
2.716651
 30
0.0
 42
-0.060361
 50
155.487014
  0
VERTEX
  8
0
 10
250.040288
 20
2.597206
 30
0.0
 42
-0.101736
 70
     2
 50
155.487014
  0
VERTEX
  8
0
 10
250.333335
 20
2.383269
 30
0.0
 42
-0.189996
  0
VERTEX
  8
0
 10
250.402572
 20
2.21248
 30
0.0
 42
-0.04739
  0
VERTEX
  8
0
 10
250.402957
 20
2.150256
 30
0.0
  0
VERTEX
  8
0
 10
250.392911
 20
1.36291
 30
0.0
  0
SEQEND
  8
0
  0
TEXT
  8
0
 10
247.774195
 20
6.430206
 30
0.0
 40
0.3
  1
P = 74.1  dm
  7
ROMANC
  0
POLYLINE
  8
0
 66
     1
 10
0.0
 20
0.0
 30
0.0
  0
VERTEX
  8
0
 10
248.845685
 20
1.359967
 30
0.0
  0
VERTEX
  8
0
 10
248.845685
 20
0.853121
 30
0.0
  0
SEQEND
  8
0
  0
LINE
  8
0
 10
248.782603
 20
0.783889
 30
0.0
 11
248.908766
 21
0.922353
 31
0.0
  0
LINE
  8
0
 10
247.832505
 20
0.783889
 30
0.0
 11
247.958668
 21
0.922353
 31
0.0
  0
TEXT
  8
0
 10
251.053908
 20
1.173787
 30
0.0
 40
0.1
  1
0.25
  7
ROMANC
  0
LINE
  8
0
 10
250.797679
 20
1.022753
 30
0.0
 11
250.923842
 21
1.161217
 31
0.0
  0
POLYLINE
  8
0
 66
     1
 10
0.0
 20
0.0
 30
0.0
  0
VERTEX
  8
0
 10
249.445666
 20
1.36291
 30
0.0
  0
VERTEX
  8
0
 10
249.445666
 20
0.853121
 30
0.0
  0
SEQEND
  8
0
  0
TEXT
  8
0
 10
251.102941
 20
2.484549
 30
0.0
 40
0.1
  1
0.57
  7
ROMANC
  0
LINE
  8
0
 10
250.797679
 20
2.205115
 30
0.0
 11
250.923842
 21
2.343579
 31
0.0
  0
LINE
  8
0
 10
250.797679
 20
2.708537
 30
0.0
 11
250.923842
 21
2.847001
 31
0.0
  0
LINE
  8
0
 10
249.382585
 20
0.783889
 30
0.0
 11
249.508748
 21
0.922353
 31
0.0
  0
LINE
  8
0
 10
250.330422
 20
0.784521
 30
0.0
 11
250.456585
 21
0.922985
 31
0.0
  0
LINE
  8
0
 10
250.797679
 20
1.293678
 30
0.0
 11
250.923842
 21
1.432142
 31
0.0
  0
TEXT
  8
0
 10
251.053908
 20
1.700542
 30
0.0
 40
0.1
  1
0.85
  7
ROMANC
  0
LINE
  8
0
 10
255.782145
 20
10.61623
 30
0.0
 11
245.282145
 21
10.61623
 31
0.0
  0
TEXT
  8
0
 10
247.812117
 20
7.726375
 30
0.0
 40
0.3
  1
ESCALA  1:50
  7
ROMANC
  0
TEXT
  8
0
 10
247.812117
 20
8.212089
 30
0.0
 40
0.3
  1
TIPUS   NT332
  7
ROMANC
  0
TEXT
  8
0
 10
247.825211
 20
7.127785
 30
0.0
 40
0.3
  1
S = 332  dm
  7
ROMANC
  0
TEXT
  8
0
 10
251.315909
 20
7.434713
 30
0.0
 40
0.1
  1
2
  7
ROMANC
  0
LINE
  8
0
 10
251.890677
 20
2.777769
 30
0.0
 11
251.890677
 21
1.092027
 31
0.0
  0
LINE
  8
0
 10
247.895587
 20
0.321941
 30
0.0
 11
250.394123
 21
0.321941
 31
0.0
  0
LINE
  8
0
 10
247.895587
 20
1.360573
 30
0.0
 11
247.895587
 21
0.321941
 31
0.0
  0
LINE
  8
0
 10
247.895587
 20
0.853121
 30
0.0
 11
250.393504
 21
0.853753
 31
0.0
  0
LINE
  8
0
 10
250.394123
 20
0.321941
 30
0.0
 11
250.392911
 21
1.36291
 31
0.0
  0
LINE
  8
0
 10
250.392911
 20
1.36291
 30
0.0
 11
250.860761
 21
1.36291
 31
0.0
  0
LINE
  8
0
 10
250.860761
 20
1.36291
 30
0.0
 11
250.860761
 21
2.274347
 31
0.0
  0
LINE
  8
0
 10
250.860761
 20
2.274347
 30
0.0
 11
250.40156
 21
2.274347
 31
0.0
  0
LINE
  8
0
 10
249.143299
 20
1.092027
 30
0.0
 11
251.890677
 21
1.092027
 31
0.0
  0
LINE
  8
0
 10
250.861121
 20
1.092027
 30
0.0
 11
250.860761
 21
1.36291
 31
0.0
  0
LINE
  8
0
 10
250.860761
 20
2.274347
 30
0.0
 11
250.860761
 21
2.777769
 31
0.0
  0
LINE
  8
0
 10
251.890677
 20
2.777769
 30
0.0
 11
249.16446
 21
2.777769
 31
0.0
  0
LINE
  8
0
 10
247.832505
 20
0.252709
 30
0.0
 11
247.958668
 21
0.391173
 31
0.0
  0
LINE
  8
0
 10
250.331041
 20
0.252709
 30
0.0
 11
250.457204
 21
0.391173
 31
0.0
  0
LINE
  8
0
 10
251.827596
 20
1.022795
 30
0.0
 11
251.953759
 21
1.161259
 31
0.0
  0
LINE
  8
0
 10
251.821724
 20
2.702092
 30
0.0
 11
251.947887
 21
2.840556
 31
0.0
  0
TEXT
  8
0
 10
252.005162
 20
1.870726
 30
0.0
 40
0.1
  1
1.67
  7
ROMANC
  0
TEXT
  8
0
 10
249.024423
 20
0.174477
 30
0.0
 40
0.1
  1
2.50
  7
ROMANC
  0
ENDSEC
  0
EOF
