  0
SECTION
  2
HEADER
  9
$ACADVER
  1
AC1009
  9
$INSBASE
 10
33.405237
 20
64.302067
 30
0.0
  9
$EXTMIN
 10
33.405237
 20
64.302067
 30
0.0
  9
$EXTMAX
 10
43.905237
 20
79.152067
 30
0.0
  9
$LIMMIN
 10
0.0
 20
0.0
  9
$LIMMAX
 10
410.0
 20
287.0
  9
$ORTHOMODE
 70
     1
  9
$REGENMODE
 70
     1
  9
$FILLMODE
 70
     1
  9
$QTEXTMODE
 70
     0
  9
$MIRRTEXT
 70
     1
  9
$DRAGMODE
 70
     2
  9
$LTSCALE
 40
25.0
  9
$OSMODE
 70
    32
  9
$ATTMODE
 70
     1
  9
$TEXTSIZE
 40
0.1
  9
$TRACEWID
 40
1.0
  9
$TEXTSTYLE
  7
ROMANC
  9
$CLAYER
  8
0
  9
$CELTYPE
  6
BYLAYER
  9
$CECOLOR
 62
   256
  9
$DIMSCALE
 40
0.0
  9
$DIMASZ
 40
0.0
  9
$DIMEXO
 40
0.1
  9
$DIMDLI
 40
7.0
  9
$DIMRND
 40
0.0
  9
$DIMDLE
 40
0.0
  9
$DIMEXE
 40
1.8
  9
$DIMTP
 40
0.0
  9
$DIMTM
 40
0.0
  9
$DIMTXT
 40
0.03
  9
$DIMCEN
 40
1.5
  9
$DIMTSZ
 40
1.0
  9
$DIMTOL
 70
     0
  9
$DIMLIM
 70
     0
  9
$DIMTIH
 70
     0
  9
$DIMTOH
 70
     0
  9
$DIMSE1
 70
     0
  9
$DIMSE2
 70
     0
  9
$DIMTAD
 70
     0
  9
$DIMZIN
 70
     0
  9
$DIMBLK
  1

  9
$DIMASO
 70
     1
  9
$DIMSHO
 70
     0
  9
$DIMPOST
  1

  9
$DIMAPOST
  1

  9
$DIMALT
 70
     0
  9
$DIMALTD
 70
     2
  9
$DIMALTF
 40
25.4
  9
$DIMLFAC
 40
1.0
  9
$DIMTOFL
 70
     1
  9
$DIMTVP
 40
0.0
  9
$DIMTIX
 70
     1
  9
$DIMSOXD
 70
     0
  9
$DIMSAH
 70
     0
  9
$DIMBLK1
  1

  9
$DIMBLK2
  1

  9
$DIMSTYLE
  2
*UNNAMED
  9
$DIMCLRD
 70
     0
  9
$DIMCLRE
 70
     0
  9
$DIMCLRT
 70
     0
  9
$DIMTFAC
 40
116.666667
  9
$DIMGAP
 40
0.09
  9
$LUNITS
 70
     2
  9
$LUPREC
 70
     2
  9
$SKETCHINC
 40
1.0
  9
$FILLETRAD
 40
0.0
  9
$AUNITS
 70
     0
  9
$AUPREC
 70
     0
  9
$MENU
  1
acad
  9
$ELEVATION
 40
0.0
  9
$PELEVATION
 40
0.0
  9
$THICKNESS
 40
0.0
  9
$LIMCHECK
 70
     0
  9
$BLIPMODE
 70
     0
  9
$CHAMFERA
 40
0.0
  9
$CHAMFERB
 40
0.0
  9
$SKPOLY
 70
     0
  9
$TDCREATE
 40
2449962.399041898
  9
$TDUPDATE
 40
2450828.524998611
  9
$TDINDWG
 40
0.0038810185
  9
$TDUSRTIMER
 40
0.0038810185
  9
$USRTIMER
 70
     1
  9
$ANGBASE
 50
0.0
  9
$ANGDIR
 70
     0
  9
$PDMODE
 70
     0
  9
$PDSIZE
 40
0.0
  9
$PLINEWID
 40
0.0
  9
$COORDS
 70
     2
  9
$SPLFRAME
 70
     0
  9
$SPLINETYPE
 70
     6
  9
$SPLINESEGS
 70
     8
  9
$ATTDIA
 70
     0
  9
$ATTREQ
 70
     1
  9
$HANDLING
 70
     0
  9
$HANDSEED
  5
0
  9
$SURFTAB1
 70
     6
  9
$SURFTAB2
 70
     6
  9
$SURFTYPE
 70
     6
  9
$SURFU
 70
     6
  9
$SURFV
 70
     6
  9
$UCSNAME
  2

  9
$UCSORG
 10
0.0
 20
0.0
 30
0.0
  9
$UCSXDIR
 10
1.0
 20
0.0
 30
0.0
  9
$UCSYDIR
 10
0.0
 20
1.0
 30
0.0
  9
$PUCSNAME
  2

  9
$PUCSORG
 10
0.0
 20
0.0
 30
0.0
  9
$PUCSXDIR
 10
1.0
 20
0.0
 30
0.0
  9
$PUCSYDIR
 10
0.0
 20
1.0
 30
0.0
  9
$USERI1
 70
     0
  9
$USERI2
 70
     0
  9
$USERI3
 70
     0
  9
$USERI4
 70
     0
  9
$USERI5
 70
     0
  9
$USERR1
 40
0.0
  9
$USERR2
 40
0.0
  9
$USERR3
 40
0.0
  9
$USERR4
 40
0.0
  9
$USERR5
 40
0.0
  9
$WORLDVIEW
 70
     1
  9
$SHADEDGE
 70
     3
  9
$SHADEDIF
 70
    70
  9
$TILEMODE
 70
     1
  9
$MAXACTVP
 70
    16
  9
$PINSBASE
 10
0.0
 20
0.0
 30
0.0
  9
$PLIMCHECK
 70
     0
  9
$PEXTMIN
 10
1.000000E+20
 20
1.000000E+20
 30
1.000000E+20
  9
$PEXTMAX
 10
-1.000000E+20
 20
-1.000000E+20
 30
-1.000000E+20
  9
$PLIMMIN
 10
0.0
 20
0.0
  9
$PLIMMAX
 10
12.0
 20
9.0
  9
$UNITMODE
 70
     0
  9
$VISRETAIN
 70
     0
  9
$PLINEGEN
 70
     0
  9
$PSLTSCALE
 70
     0
  9
$TREEDEPTH
 70
  3020
  9
$DWGCODEPAGE
  3
iso8859-1
  0
ENDSEC
  0
SECTION
  2
TABLES
  0
TABLE
  2
VPORT
 70
     2
  0
VPORT
  2
*ACTIVE
 70
     0
 10
0.0
 20
0.0
 11
1.0
 21
1.0
 12
45.367088
 22
71.727067
 13
0.0
 23
0.0
 14
1.0
 24
1.0
 15
10.0
 25
10.0
 16
0.0
 26
0.0
 36
1.0
 17
0.0
 27
0.0
 37
0.0
 40
14.85
 41
1.611024
 42
50.0
 43
0.0
 44
0.0
 50
0.0
 51
0.0
 71
     0
 72
   100
 73
     1
 74
     0
 75
     0
 76
     0
 77
     0
 78
     2
  0
ENDTAB
  0
TABLE
  2
LTYPE
 70
     1
  0
LTYPE
  2
CONTINUOUS
 70
    64
  3
Solid line
 72
    65
 73
     0
 40
0.0
  0
ENDTAB
  0
TABLE
  2
LAYER
 70
     1
  0
LAYER
  2
0
 70
    64
 62
     7
  6
CONTINUOUS
  0
ENDTAB
  0
TABLE
  2
STYLE
 70
     2
  0
STYLE
  2
STANDARD
 70
     0
 40
0.0
 41
1.0
 50
0.0
 71
     0
 42
0.1
  3
txt
  4

  0
STYLE
  2
ROMANC
 70
    64
 40
0.0
 41
1.0
 50
0.0
 71
     0
 42
0.1
  3
romanc
  4

  0
ENDTAB
  0
TABLE
  2
VIEW
 70
     0
  0
ENDTAB
  0
TABLE
  2
UCS
 70
     0
  0
ENDTAB
  0
TABLE
  2
APPID
 70
     1
  0
APPID
  2
ACAD
 70
    64
  0
ENDTAB
  0
TABLE
  2
DIMSTYLE
 70
     0
  0
ENDTAB
  0
ENDSEC
  0
SECTION
  2
BLOCKS
  0
ENDSEC
  0
SECTION
  2
ENTITIES
  0
LINE
  8
0
 10
33.405237
 20
79.152067
 30
0.0
 11
33.405237
 21
64.302067
 31
0.0
  0
LINE
  8
0
 10
43.905237
 20
64.302067
 30
0.0
 11
43.905237
 21
79.152067
 31
0.0
  0
LINE
  8
0
 10
38.708967
 20
68.908289
 30
0.0
 11
36.708967
 21
68.908289
 31
0.0
  0
LINE
  8
0
 10
33.405237
 20
64.302067
 30
0.0
 11
43.905237
 21
64.302067
 31
0.0
  0
LINE
  8
0
 10
36.708967
 20
69.838488
 30
0.0
 11
36.708967
 21
68.908289
 31
0.0
  0
LINE
  8
0
 10
36.763265
 20
68.99356
 30
0.0
 11
36.654668
 21
68.823018
 31
0.0
  0
TEXT
  8
0
 10
39.044473
 20
70.568383
 30
0.0
 40
0.1
  1
1.7
  7
ROMANC
  0
LINE
  8
0
 10
39.371476
 20
71.523759
 30
0.0
 11
39.262879
 21
71.353217
 31
0.0
  0
LINE
  8
0
 10
39.371476
 20
69.923759
 30
0.0
 11
39.262879
 21
69.753217
 31
0.0
  0
LINE
  8
0
 10
39.317178
 20
69.588488
 30
0.0
 11
39.317178
 21
71.438488
 31
0.0
  0
LINE
  8
0
 10
38.708967
 20
69.838488
 30
0.0
 11
38.708967
 21
68.908289
 31
0.0
  0
LINE
  8
0
 10
38.763265
 20
68.99356
 30
0.0
 11
38.654668
 21
68.823018
 31
0.0
  0
TEXT
  8
0
 10
37.639514
 20
68.700223
 30
0.0
 40
0.1
  1
2.0
  7
ROMANC
  0
LINE
  8
0
 10
37.458967
 20
69.838488
 30
0.0
 11
37.458967
 21
70.028755
 31
0.0
  0
LINE
  8
0
 10
37.958967
 20
69.838488
 30
0.0
 11
37.958967
 21
70.028755
 31
0.0
  0
LINE
  8
0
 10
37.458967
 20
70.028755
 30
0.0
 11
37.958967
 21
70.028755
 31
0.0
  0
LINE
  8
0
 10
37.513265
 20
70.114026
 30
0.0
 11
37.404668
 21
69.943484
 31
0.0
  0
LINE
  8
0
 10
38.013265
 20
70.114026
 30
0.0
 11
37.904668
 21
69.943484
 31
0.0
  0
TEXT
  8
0
 10
37.617496
 20
70.127912
 30
0.0
 40
0.1
  1
0.5
  7
ROMANC
  0
LINE
  8
0
 10
38.708967
 20
69.838488
 30
0.0
 11
39.317178
 21
69.838488
 31
0.0
  0
LINE
  8
0
 10
38.708967
 20
71.438488
 30
0.0
 11
39.768293
 21
71.438488
 31
0.0
  0
TEXT
  8
0
 10
35.979909
 20
74.967294
 30
0.0
 40
0.3
  1
P = 74.9 dm
  7
ROMANC
  0
TEXT
  8
0
 10
35.93521
 20
76.747926
 30
0.0
 40
0.3
  1
TIPUS   NT330
  7
ROMANC
  0
TEXT
  8
0
 10
35.982737
 20
75.640792
 30
0.0
 40
0.3
  1
S = 330  dm
  7
ROMANC
  0
TEXT
  8
0
 10
35.93521
 20
76.262212
 30
0.0
 40
0.3
  1
ESCALA  1:50
  7
ROMANC
  0
LINE
  8
0
 10
43.905237
 20
79.152067
 30
0.0
 11
33.405237
 21
79.152067
 31
0.0
  0
TEXT
  8
0
 10
39.490568
 20
75.946708
 30
0.0
 40
0.1
  1
2
  7
ROMANC
  0
LINE
  8
0
 10
36.708967
 20
69.392735
 30
0.0
 11
37.449159
 21
69.392735
 31
0.0
  0
LINE
  8
0
 10
37.449159
 20
69.828488
 30
0.0
 11
37.449159
 21
69.392735
 31
0.0
  0
LINE
  8
0
 10
37.968774
 20
69.828488
 30
0.0
 11
37.968774
 21
69.392735
 31
0.0
  0
LINE
  8
0
 10
38.023073
 20
69.478006
 30
0.0
 11
37.914475
 21
69.307464
 31
0.0
  0
LINE
  8
0
 10
37.503458
 20
69.478006
 30
0.0
 11
37.39486
 21
69.307464
 31
0.0
  0
LINE
  8
0
 10
36.763265
 20
69.478006
 30
0.0
 11
36.654668
 21
69.307464
 31
0.0
  0
LINE
  8
0
 10
38.763265
 20
69.478006
 30
0.0
 11
38.654668
 21
69.307464
 31
0.0
  0
LINE
  8
0
 10
37.968774
 20
69.392735
 30
0.0
 11
38.708967
 21
69.392735
 31
0.0
  0
TEXT
  8
0
 10
38.182751
 20
69.176316
 30
0.0
 40
0.1
  1
1.75
  7
ROMANC
  0
TEXT
  8
0
 10
36.962557
 20
69.193021
 30
0.0
 40
0.1
  1
1.75
  7
ROMANC
  0
LINE
  8
0
 10
37.708967
 20
69.588488
 30
0.0
 11
39.768293
 21
69.588488
 31
0.0
  0
LINE
  8
0
 10
39.371476
 20
69.673759
 30
0.0
 11
39.262879
 21
69.503217
 31
0.0
  0
TEXT
  8
0
 10
38.974209
 20
69.644263
 30
0.0
 40
0.1
  1
0.25
  7
ROMANC
  0
TEXT
  8
0
 10
39.409934
 20
70.568383
 30
0.0
 40
0.1
  1
1.95
  7
ROMANC
  0
LINE
  8
0
 10
39.768293
 20
69.588488
 30
0.0
 11
39.768293
 21
71.438488
 31
0.0
  0
LINE
  8
0
 10
39.822592
 20
69.673759
 30
0.0
 11
39.713995
 21
69.503217
 31
0.0
  0
LINE
  8
0
 10
39.822592
 20
71.523759
 30
0.0
 11
39.713995
 21
71.353217
 31
0.0
  0
LINE
  8
0
 10
36.708967
 20
71.438488
 30
0.0
 11
36.708967
 21
69.838488
 31
0.0
  0
LINE
  8
0
 10
36.708967
 20
69.838488
 30
0.0
 11
37.458967
 21
69.838488
 31
0.0
  0
ARC
  8
0
 10
37.708967
 20
69.838488
 30
0.0
 40
0.25
 50
180.0
 51
0.0
  0
LINE
  8
0
 10
37.958967
 20
69.838488
 30
0.0
 11
38.708967
 21
69.838488
 31
0.0
  0
LINE
  8
0
 10
38.708967
 20
69.838488
 30
0.0
 11
38.708967
 21
71.438488
 31
0.0
  0
LINE
  8
0
 10
38.708967
 20
71.438488
 30
0.0
 11
36.708967
 21
71.438488
 31
0.0
  0
LINE
  8
0
 10
36.698967
 20
71.448488
 30
0.0
 11
36.698967
 21
69.828488
 31
0.0
  0
LINE
  8
0
 10
36.698967
 20
69.828488
 30
0.0
 11
37.449159
 21
69.828488
 31
0.0
  0
ARC
  8
0
 10
37.708967
 20
69.838488
 30
0.0
 40
0.26
 50
182.204228
 51
357.795772
  0
LINE
  8
0
 10
37.968774
 20
69.828488
 30
0.0
 11
38.718967
 21
69.828488
 31
0.0
  0
LINE
  8
0
 10
38.718967
 20
69.828488
 30
0.0
 11
38.718967
 21
71.448488
 31
0.0
  0
LINE
  8
0
 10
38.718967
 20
71.448488
 30
0.0
 11
36.698967
 21
71.448488
 31
0.0
  0
LINE
  8
0
 10
36.718967
 20
71.428488
 30
0.0
 11
36.718967
 21
69.848488
 31
0.0
  0
LINE
  8
0
 10
36.718967
 20
69.848488
 30
0.0
 11
37.469175
 21
69.848488
 31
0.0
  0
ARC
  8
0
 10
37.708967
 20
69.838488
 30
0.0
 40
0.24
 50
177.611985
 51
2.388015
  0
LINE
  8
0
 10
37.948758
 20
69.848488
 30
0.0
 11
38.698967
 21
69.848488
 31
0.0
  0
LINE
  8
0
 10
38.698967
 20
69.848488
 30
0.0
 11
38.698967
 21
71.428488
 31
0.0
  0
LINE
  8
0
 10
38.698967
 20
71.428488
 30
0.0
 11
36.718967
 21
71.428488
 31
0.0
  0
ENDSEC
  0
EOF
