  0
SECTION
  2
HEADER
  9
$ACADVER
  1
AC1009
  9
$INSBASE
 10
217.147185
 20
-2.938384
 30
0.0
  9
$EXTMIN
 10
217.147185
 20
-2.938384
 30
0.0
  9
$EXTMAX
 10
227.647185
 20
11.911616
 30
0.0
  9
$LIMMIN
 10
0.0
 20
0.0
  9
$LIMMAX
 10
410.0
 20
287.0
  9
$ORTHOMODE
 70
     0
  9
$REGENMODE
 70
     1
  9
$FILLMODE
 70
     1
  9
$QTEXTMODE
 70
     0
  9
$MIRRTEXT
 70
     1
  9
$DRAGMODE
 70
     2
  9
$LTSCALE
 40
25.0
  9
$OSMODE
 70
    32
  9
$ATTMODE
 70
     1
  9
$TEXTSIZE
 40
0.1
  9
$TRACEWID
 40
1.0
  9
$TEXTSTYLE
  7
ROMANC
  9
$CLAYER
  8
0
  9
$CELTYPE
  6
BYLAYER
  9
$CECOLOR
 62
   256
  9
$DIMSCALE
 40
0.0
  9
$DIMASZ
 40
0.0
  9
$DIMEXO
 40
0.1
  9
$DIMDLI
 40
7.0
  9
$DIMRND
 40
0.0
  9
$DIMDLE
 40
0.0
  9
$DIMEXE
 40
1.8
  9
$DIMTP
 40
0.0
  9
$DIMTM
 40
0.0
  9
$DIMTXT
 40
0.03
  9
$DIMCEN
 40
1.5
  9
$DIMTSZ
 40
1.0
  9
$DIMTOL
 70
     0
  9
$DIMLIM
 70
     0
  9
$DIMTIH
 70
     0
  9
$DIMTOH
 70
     0
  9
$DIMSE1
 70
     0
  9
$DIMSE2
 70
     0
  9
$DIMTAD
 70
     0
  9
$DIMZIN
 70
     0
  9
$DIMBLK
  1

  9
$DIMASO
 70
     1
  9
$DIMSHO
 70
     0
  9
$DIMPOST
  1

  9
$DIMAPOST
  1

  9
$DIMALT
 70
     0
  9
$DIMALTD
 70
     2
  9
$DIMALTF
 40
25.4
  9
$DIMLFAC
 40
1.0
  9
$DIMTOFL
 70
     1
  9
$DIMTVP
 40
0.0
  9
$DIMTIX
 70
     1
  9
$DIMSOXD
 70
     0
  9
$DIMSAH
 70
     0
  9
$DIMBLK1
  1

  9
$DIMBLK2
  1

  9
$DIMSTYLE
  2
*UNNAMED
  9
$DIMCLRD
 70
     0
  9
$DIMCLRE
 70
     0
  9
$DIMCLRT
 70
     0
  9
$DIMTFAC
 40
116.666667
  9
$DIMGAP
 40
0.09
  9
$LUNITS
 70
     2
  9
$LUPREC
 70
     2
  9
$SKETCHINC
 40
1.0
  9
$FILLETRAD
 40
0.0
  9
$AUNITS
 70
     0
  9
$AUPREC
 70
     0
  9
$MENU
  1
acad
  9
$ELEVATION
 40
0.0
  9
$PELEVATION
 40
0.0
  9
$THICKNESS
 40
0.0
  9
$LIMCHECK
 70
     0
  9
$BLIPMODE
 70
     0
  9
$CHAMFERA
 40
0.0
  9
$CHAMFERB
 40
0.0
  9
$SKPOLY
 70
     0
  9
$TDCREATE
 40
2449967.536529860
  9
$TDUPDATE
 40
2450721.671545486
  9
$TDINDWG
 40
0.0014850694
  9
$TDUSRTIMER
 40
0.0014850694
  9
$USRTIMER
 70
     1
  9
$ANGBASE
 50
0.0
  9
$ANGDIR
 70
     0
  9
$PDMODE
 70
     0
  9
$PDSIZE
 40
0.0
  9
$PLINEWID
 40
0.0
  9
$COORDS
 70
     2
  9
$SPLFRAME
 70
     0
  9
$SPLINETYPE
 70
     6
  9
$SPLINESEGS
 70
     8
  9
$ATTDIA
 70
     0
  9
$ATTREQ
 70
     1
  9
$HANDLING
 70
     0
  9
$HANDSEED
  5
0
  9
$SURFTAB1
 70
     6
  9
$SURFTAB2
 70
     6
  9
$SURFTYPE
 70
     6
  9
$SURFU
 70
     6
  9
$SURFV
 70
     6
  9
$UCSNAME
  2

  9
$UCSORG
 10
0.0
 20
0.0
 30
0.0
  9
$UCSXDIR
 10
1.0
 20
0.0
 30
0.0
  9
$UCSYDIR
 10
0.0
 20
1.0
 30
0.0
  9
$PUCSNAME
  2

  9
$PUCSORG
 10
0.0
 20
0.0
 30
0.0
  9
$PUCSXDIR
 10
1.0
 20
0.0
 30
0.0
  9
$PUCSYDIR
 10
0.0
 20
1.0
 30
0.0
  9
$USERI1
 70
     0
  9
$USERI2
 70
     0
  9
$USERI3
 70
     0
  9
$USERI4
 70
     0
  9
$USERI5
 70
     0
  9
$USERR1
 40
0.0
  9
$USERR2
 40
0.0
  9
$USERR3
 40
0.0
  9
$USERR4
 40
0.0
  9
$USERR5
 40
0.0
  9
$WORLDVIEW
 70
     1
  9
$SHADEDGE
 70
     3
  9
$SHADEDIF
 70
    70
  9
$TILEMODE
 70
     1
  9
$MAXACTVP
 70
    16
  9
$PINSBASE
 10
0.0
 20
0.0
 30
0.0
  9
$PLIMCHECK
 70
     0
  9
$PEXTMIN
 10
1.000000E+20
 20
1.000000E+20
 30
1.000000E+20
  9
$PEXTMAX
 10
-1.000000E+20
 20
-1.000000E+20
 30
-1.000000E+20
  9
$PLIMMIN
 10
0.0
 20
0.0
  9
$PLIMMAX
 10
12.0
 20
9.0
  9
$UNITMODE
 70
     0
  9
$VISRETAIN
 70
     0
  9
$PLINEGEN
 70
     0
  9
$PSLTSCALE
 70
     0
  9
$TREEDEPTH
 70
  3020
  9
$DWGCODEPAGE
  3
iso8859-1
  0
ENDSEC
  0
SECTION
  2
TABLES
  0
TABLE
  2
VPORT
 70
     2
  0
VPORT
  2
*ACTIVE
 70
     0
 10
0.0
 20
0.0
 11
1.0
 21
1.0
 12
229.461523
 22
4.705414
 13
0.0
 23
0.0
 14
1.0
 24
1.0
 15
10.0
 25
10.0
 16
0.0
 26
0.0
 36
1.0
 17
0.0
 27
0.0
 37
0.0
 40
15.287595
 41
1.611024
 42
50.0
 43
0.0
 44
0.0
 50
0.0
 51
0.0
 71
     0
 72
   100
 73
     1
 74
     0
 75
     0
 76
     0
 77
     0
 78
     2
  0
ENDTAB
  0
TABLE
  2
LTYPE
 70
     1
  0
LTYPE
  2
CONTINUOUS
 70
    64
  3
Solid line
 72
    65
 73
     0
 40
0.0
  0
ENDTAB
  0
TABLE
  2
LAYER
 70
     2
  0
LAYER
  2
0
 70
    64
 62
     7
  6
CONTINUOUS
  0
LAYER
  2
MESURA
 70
    64
 62
     7
  6
CONTINUOUS
  0
ENDTAB
  0
TABLE
  2
STYLE
 70
     2
  0
STYLE
  2
STANDARD
 70
     0
 40
0.0
 41
1.0
 50
0.0
 71
     0
 42
0.1
  3
txt
  4

  0
STYLE
  2
ROMANC
 70
    64
 40
0.0
 41
1.0
 50
0.0
 71
     0
 42
0.1
  3
romanc
  4

  0
ENDTAB
  0
TABLE
  2
VIEW
 70
     0
  0
ENDTAB
  0
TABLE
  2
UCS
 70
     0
  0
ENDTAB
  0
TABLE
  2
APPID
 70
     1
  0
APPID
  2
ACAD
 70
    64
  0
ENDTAB
  0
TABLE
  2
DIMSTYLE
 70
     0
  0
ENDTAB
  0
ENDSEC
  0
SECTION
  2
BLOCKS
  0
ENDSEC
  0
SECTION
  2
ENTITIES
  0
TEXT
  8
0
 10
219.713095
 20
7.954508
 30
0.0
 40
0.3
  1
P = 70.6 dm
  7
ROMANC
  0
LINE
  8
0
 10
227.647185
 20
11.911616
 30
0.0
 11
217.147185
 21
11.911616
 31
0.0
  0
TEXT
  8
0
 10
219.677157
 20
9.507476
 30
0.0
 40
0.3
  1
TIPUS   NT327
  7
ROMANC
  0
TEXT
  8
0
 10
219.690251
 20
8.423172
 30
0.0
 40
0.3
  1
S =  327 dm
  7
ROMANC
  0
TEXT
  8
0
 10
219.677157
 20
9.021761
 30
0.0
 40
0.3
  1
ESCALA  1:50
  7
ROMANC
  0
LINE
  8
0
 10
217.147185
 20
-2.938384
 30
0.0
 11
227.647185
 21
-2.938384
 31
0.0
  0
LINE
  8
0
 10
217.147185
 20
11.911616
 30
0.0
 11
217.147185
 21
-2.938384
 31
0.0
  0
LINE
  8
0
 10
221.56217
 20
0.625586
 30
0.0
 11
221.56217
 21
-0.114185
 31
0.0
  0
LINE
  8
0
 10
223.16217
 20
0.625586
 30
0.0
 11
223.16217
 21
-0.114185
 31
0.0
  0
LINE
  8
0
 10
227.647185
 20
-2.938384
 30
0.0
 11
227.647185
 21
11.911616
 31
0.0
  0
TEXT
  8
0
 10
222.250419
 20
-0.375886
 30
0.0
 40
0.1
  1
1.60
  7
ROMANC
  0
LINE
  8
MESURA
  6
BYBLOCK
 62
     0
 10
221.46217
 20
-0.214185
 30
0.0
 11
221.66217
 21
-0.014185
 31
0.0
  0
LINE
  8
MESURA
  6
BYBLOCK
 62
     0
 10
223.06217
 20
-0.214185
 30
0.0
 11
223.26217
 21
-0.014185
 31
0.0
  0
LINE
  8
0
 10
221.56217
 20
-0.114185
 30
0.0
 11
223.16217
 21
-0.114185
 31
0.0
  0
POLYLINE
  8
0
 66
     1
 10
0.0
 20
0.0
 30
0.0
 70
     1
  0
VERTEX
  8
0
 10
223.15217
 20
0.625586
 30
0.0
  0
VERTEX
  8
0
 10
223.15217
 20
2.465586
 30
0.0
  0
VERTEX
  8
0
 10
221.57217
 20
2.465586
 30
0.0
  0
VERTEX
  8
0
 10
221.57217
 20
0.625586
 30
0.0
 42
0.235319
  0
VERTEX
  8
0
 10
221.605954
 20
0.557777
 30
0.0
 42
0.086075
  0
VERTEX
  8
0
 10
221.799467
 20
0.458354
 30
0.0
 42
0.043567
 70
     2
 50
342.645975
  0
VERTEX
  8
0
 10
222.03531
 20
0.406652
 30
0.0
 42
0.032193
 50
342.645975
  0
VERTEX
  8
0
 10
222.36217
 20
0.385586
 30
0.0
 42
0.032193
  0
VERTEX
  8
0
 10
222.689029
 20
0.406652
 30
0.0
 42
0.043567
  0
VERTEX
  8
0
 10
222.924872
 20
0.458354
 30
0.0
 42
0.086075
 70
     2
 50
17.354025
  0
VERTEX
  8
0
 10
223.118385
 20
0.557777
 30
0.0
 42
0.235319
 50
17.354025
  0
SEQEND
  8
0
  0
POLYLINE
  8
0
 66
     1
 10
0.0
 20
0.0
 30
0.0
 70
     1
  0
VERTEX
  8
0
 10
223.17217
 20
0.625586
 30
0.0
  0
VERTEX
  8
0
 10
223.17217
 20
2.485586
 30
0.0
  0
VERTEX
  8
0
 10
221.55217
 20
2.485586
 30
0.0
  0
VERTEX
  8
0
 10
221.55217
 20
0.625586
 30
0.0
 42
0.235319
  0
VERTEX
  8
0
 10
221.593908
 20
0.541811
 30
0.0
 42
0.086075
  0
VERTEX
  8
0
 10
221.793501
 20
0.439264
 30
0.0
 42
0.043567
 70
     2
 50
342.645975
  0
VERTEX
  8
0
 10
222.032743
 20
0.386818
 30
0.0
 42
0.032193
 50
342.645975
  0
VERTEX
  8
0
 10
222.36217
 20
0.365586
 30
0.0
 42
0.032193
  0
VERTEX
  8
0
 10
222.691596
 20
0.386818
 30
0.0
 42
0.043567
  0
VERTEX
  8
0
 10
222.930838
 20
0.439264
 30
0.0
 42
0.086075
 70
     2
 50
17.354025
  0
VERTEX
  8
0
 10
223.130431
 20
0.541811
 30
0.0
 42
0.235319
 50
17.354025
  0
SEQEND
  8
0
  0
POLYLINE
  8
0
 66
     1
 10
0.0
 20
0.0
 30
0.0
 70
     1
  0
VERTEX
  8
0
 10
223.16217
 20
0.625586
 30
0.0
  0
VERTEX
  8
0
 10
223.16217
 20
2.475586
 30
0.0
  0
VERTEX
  8
0
 10
221.56217
 20
2.475586
 30
0.0
  0
VERTEX
  8
0
 10
221.56217
 20
0.625586
 30
0.0
 42
0.235319
  0
VERTEX
  8
0
 10
221.599931
 20
0.549794
 30
0.0
 42
0.086075
  0
VERTEX
  8
0
 10
221.796484
 20
0.448809
 30
0.0
 42
0.043567
 70
     2
 50
342.645975
  0
VERTEX
  8
0
 10
222.034026
 20
0.396735
 30
0.0
 42
0.032193
 50
342.645975
  0
VERTEX
  8
0
 10
222.36217
 20
0.375586
 30
0.0
 42
0.032193
  0
VERTEX
  8
0
 10
222.690313
 20
0.396735
 30
0.0
 42
0.043567
  0
VERTEX
  8
0
 10
222.927855
 20
0.448809
 30
0.0
 42
0.086075
 70
     2
 50
17.354025
  0
VERTEX
  8
0
 10
223.124408
 20
0.549794
 30
0.0
 42
0.235319
 50
17.354025
  0
SEQEND
  8
0
  0
TEXT
  8
0
 10
224.092247
 20
1.523177
 30
0.0
 40
0.1
  1
1.85
  7
ROMANC
  0
TEXT
  8
0
 10
224.063011
 20
0.471388
 30
0.0
 40
0.1
  1
0.25
  7
ROMANC
  0
LINE
  8
MESURA
  6
BYBLOCK
 62
     0
 10
223.80194
 20
0.275586
 30
0.0
 11
224.00194
 21
0.475586
 31
0.0
  0
LINE
  8
MESURA
  6
BYBLOCK
 62
     0
 10
223.80194
 20
0.525586
 30
0.0
 11
224.00194
 21
0.725586
 31
0.0
  0
LINE
  8
MESURA
  6
BYBLOCK
 62
     0
 10
223.80194
 20
2.375586
 30
0.0
 11
224.00194
 21
2.575586
 31
0.0
  0
LINE
  8
0
 10
222.36217
 20
0.375586
 30
0.0
 11
224.736209
 21
0.375586
 31
0.0
  0
LINE
  8
0
 10
223.16217
 20
0.625586
 30
0.0
 11
223.90194
 21
0.625586
 31
0.0
  0
LINE
  8
0
 10
223.16217
 20
2.475586
 30
0.0
 11
224.736209
 21
2.475586
 31
0.0
  0
LINE
  8
0
 10
223.90194
 20
0.375586
 30
0.0
 11
223.90194
 21
2.475586
 31
0.0
  0
TEXT
  8
0
 10
223.198082
 20
8.729088
 30
0.0
 40
0.1
  1
2
  7
ROMANC
  0
LINE
  8
0
 10
224.736209
 20
2.475586
 30
0.0
 11
224.736209
 21
0.375586
 31
0.0
  0
LINE
  8
MESURA
  6
BYBLOCK
 62
     0
 10
224.636209
 20
2.375586
 30
0.0
 11
224.836209
 21
2.575586
 31
0.0
  0
LINE
  8
MESURA
  6
BYBLOCK
 62
     0
 10
224.636209
 20
0.275586
 30
0.0
 11
224.836209
 21
0.475586
 31
0.0
  0
TEXT
  8
0
 10
224.818706
 20
1.326722
 30
0.0
 40
0.1
  1
2.10
  7
ROMANC
  0
ENDSEC
  0
EOF
