  0
SECTION
  2
HEADER
  9
$ACADVER
  1
AC1009
  9
$INSBASE
 10
0.0
 20
0.0
 30
0.0
  9
$EXTMIN
 10
318.829805
 20
29.85788
 30
0.0
  9
$EXTMAX
 10
329.371339
 20
44.72551
 30
0.0
  9
$LIMMIN
 10
0.0
 20
0.0
  9
$LIMMAX
 10
410.0
 20
287.0
  9
$ORTHOMODE
 70
     1
  9
$REGENMODE
 70
     1
  9
$FILLMODE
 70
     1
  9
$QTEXTMODE
 70
     0
  9
$MIRRTEXT
 70
     1
  9
$DRAGMODE
 70
     2
  9
$LTSCALE
 40
25.0
  9
$OSMODE
 70
     0
  9
$ATTMODE
 70
     1
  9
$TEXTSIZE
 40
0.1
  9
$TRACEWID
 40
1.0
  9
$TEXTSTYLE
  7
ROMANC
  9
$CLAYER
  8
0
  9
$CELTYPE
  6
BYLAYER
  9
$CECOLOR
 62
   256
  9
$DIMSCALE
 40
1.5
  9
$DIMASZ
 40
0.1
  9
$DIMEXO
 40
0.01
  9
$DIMDLI
 40
7.0
  9
$DIMRND
 40
0.0
  9
$DIMDLE
 40
0.0
  9
$DIMEXE
 40
0.01
  9
$DIMTP
 40
0.0
  9
$DIMTM
 40
0.0
  9
$DIMTXT
 40
0.05
  9
$DIMCEN
 40
0.0
  9
$DIMTSZ
 40
0.0
  9
$DIMTOL
 70
     0
  9
$DIMLIM
 70
     0
  9
$DIMTIH
 70
     0
  9
$DIMTOH
 70
     0
  9
$DIMSE1
 70
     0
  9
$DIMSE2
 70
     0
  9
$DIMTAD
 70
     1
  9
$DIMZIN
 70
     0
  9
$DIMBLK
  1

  9
$DIMASO
 70
     1
  9
$DIMSHO
 70
     0
  9
$DIMPOST
  1

  9
$DIMAPOST
  1

  9
$DIMALT
 70
     0
  9
$DIMALTD
 70
     2
  9
$DIMALTF
 40
25.4
  9
$DIMLFAC
 40
1.0
  9
$DIMTOFL
 70
     1
  9
$DIMTVP
 40
0.0
  9
$DIMTIX
 70
     1
  9
$DIMSOXD
 70
     0
  9
$DIMSAH
 70
     0
  9
$DIMBLK1
  1

  9
$DIMBLK2
  1

  9
$DIMSTYLE
  2
MERITXELL
  9
$DIMCLRD
 70
     0
  9
$DIMCLRE
 70
     0
  9
$DIMCLRT
 70
     0
  9
$DIMTFAC
 40
70.0
  9
$DIMGAP
 40
0.025
  9
$LUNITS
 70
     2
  9
$LUPREC
 70
     2
  9
$SKETCHINC
 40
1.0
  9
$FILLETRAD
 40
0.0
  9
$AUNITS
 70
     0
  9
$AUPREC
 70
     0
  9
$MENU
  1
acad
  9
$ELEVATION
 40
0.0
  9
$PELEVATION
 40
0.0
  9
$THICKNESS
 40
0.0
  9
$LIMCHECK
 70
     0
  9
$BLIPMODE
 70
     0
  9
$CHAMFERA
 40
0.0
  9
$CHAMFERB
 40
0.0
  9
$SKPOLY
 70
     0
  9
$TDCREATE
 40
2450927.46195
  9
$TDUPDATE
 40
2451047.583284
  9
$TDINDWG
 40
0.115533
  9
$TDUSRTIMER
 40
0.115533
  9
$USRTIMER
 70
     1
  9
$ANGBASE
 50
0.0
  9
$ANGDIR
 70
     0
  9
$PDMODE
 70
     0
  9
$PDSIZE
 40
0.0
  9
$PLINEWID
 40
0.0
  9
$COORDS
 70
     2
  9
$SPLFRAME
 70
     0
  9
$SPLINETYPE
 70
     6
  9
$SPLINESEGS
 70
     8
  9
$ATTDIA
 70
     0
  9
$ATTREQ
 70
     1
  9
$HANDLING
 70
     1
  9
$HANDSEED
  5
34E
  9
$SURFTAB1
 70
     6
  9
$SURFTAB2
 70
     6
  9
$SURFTYPE
 70
     6
  9
$SURFU
 70
     6
  9
$SURFV
 70
     6
  9
$UCSNAME
  2

  9
$UCSORG
 10
0.0
 20
0.0
 30
0.0
  9
$UCSXDIR
 10
1.0
 20
0.0
 30
0.0
  9
$UCSYDIR
 10
0.0
 20
1.0
 30
0.0
  9
$PUCSNAME
  2

  9
$PUCSORG
 10
0.0
 20
0.0
 30
0.0
  9
$PUCSXDIR
 10
1.0
 20
0.0
 30
0.0
  9
$PUCSYDIR
 10
0.0
 20
1.0
 30
0.0
  9
$USERI1
 70
     0
  9
$USERI2
 70
     0
  9
$USERI3
 70
     0
  9
$USERI4
 70
     0
  9
$USERI5
 70
     0
  9
$USERR1
 40
0.0
  9
$USERR2
 40
0.0
  9
$USERR3
 40
0.0
  9
$USERR4
 40
0.0
  9
$USERR5
 40
0.0
  9
$WORLDVIEW
 70
     1
  9
$SHADEDGE
 70
     3
  9
$SHADEDIF
 70
    70
  9
$TILEMODE
 70
     1
  9
$MAXACTVP
 70
    16
  9
$PLIMCHECK
 70
     0
  9
$PEXTMIN
 10
1.000000E+020
 20
1.000000E+020
 30
1.000000E+020
  9
$PEXTMAX
 10
-1.000000E+020
 20
-1.000000E+020
 30
-1.000000E+020
  9
$PLIMMIN
 10
0.0
 20
0.0
  9
$PLIMMAX
 10
12.0
 20
9.0
  9
$UNITMODE
 70
     0
  9
$VISRETAIN
 70
     0
  9
$PLINEGEN
 70
     0
  9
$PSLTSCALE
 70
     0
  0
ENDSEC
  0
SECTION
  2
TABLES
  0
TABLE
  2
VPORT
 70
     7
  0
VPORT
  2
*ACTIVE
 70
     0
 10
0.0
 20
0.0
 11
1.0
 21
1.0
 12
324.100572
 22
37.291695
 13
0.0
 23
0.0
 14
1.0
 24
1.0
 15
10.0
 25
10.0
 16
0.0
 26
0.0
 36
1.0
 17
0.0
 27
0.0
 37
0.0
 40
14.996726
 41
1.662319
 42
50.0
 43
0.0
 44
0.0
 50
0.0
 51
0.0
 71
     0
 72
   100
 73
     1
 74
     0
 75
     0
 76
     0
 77
     0
 78
     1
  0
ENDTAB
  0
TABLE
  2
LTYPE
 70
     1
  0
LTYPE
  2
CONTINUOUS
 70
     0
  3
Solid line
 72
    65
 73
     0
 40
0.0
  0
ENDTAB
  0
TABLE
  2
LAYER
 70
     2
  0
LAYER
  2
0
 70
     0
 62
     7
  6
CONTINUOUS
  0
LAYER
  2
DEFPOINTS
 70
     0
 62
     7
  6
CONTINUOUS
  0
ENDTAB
  0
TABLE
  2
STYLE
 70
     2
  0
STYLE
  2
STANDARD
 70
     0
 40
0.0
 41
1.0
 50
0.0
 71
     0
 42
0.1
  3
txt
  4

  0
STYLE
  2
ROMANC
 70
     0
 40
0.0
 41
1.0
 50
0.0
 71
     0
 42
0.1
  3
romanc
  4

  0
ENDTAB
  0
TABLE
  2
VIEW
 70
     0
  0
ENDTAB
  0
TABLE
  2
UCS
 70
     0
  0
ENDTAB
  0
TABLE
  2
APPID
 70
     1
  0
APPID
  2
ACAD
 70
     0
  0
ENDTAB
  0
TABLE
  2
DIMSTYLE
 70
     1
  0
DIMSTYLE
  2
MERITXELL
 70
     0
  3

  4

  5

  6

  7

 40
1.5
 41
0.1
 42
0.01
 43
7.0
 44
0.01
 45
0.0
 46
0.0
 47
0.0
 48
0.0
140
0.05
141
0.1
142
0.0
143
25.4
144
1.0
145
0.0
146
70.0
147
0.09
 71
     0
 72
     0
 73
     0
 74
     0
 75
     0
 76
     0
 77
     1
 78
     0
170
     0
171
     2
172
     1
173
     0
174
     1
175
     0
176
     0
177
     0
178
     0
  0
ENDTAB
  0
ENDSEC
  0
SECTION
  2
BLOCKS
  0
BLOCK
  8
0
  2
$MODEL_SPACE
 70
     0
 10
0.0
 20
0.0
 30
0.0
  3
$MODEL_SPACE
  1

  0
ENDBLK
  5
24
  8
0
  0
BLOCK
 67
     1
  8
0
  2
$PAPER_SPACE
 70
     0
 10
0.0
 20
0.0
 30
0.0
  3
$PAPER_SPACE
  1

  0
ENDBLK
  5
22
 67
     1
  8
0
  0
BLOCK
  8
0
  2
*D0
 70
     1
 10
0.0
 20
0.0
 30
0.0
  3
*D0
  1

  0
LINE
  5
20F
  8
0
  6
BYBLOCK
 62
     0
 10
322.963721
 20
34.922329
 30
0.0
 11
322.963721
 21
34.144609
 31
0.0
  0
LINE
  5
210
  8
0
  6
BYBLOCK
 62
     0
 10
322.313721
 20
34.922329
 30
0.0
 11
322.313721
 21
34.144609
 31
0.0
  0
LINE
  5
211
  8
0
  6
BYBLOCK
 62
     0
 10
322.813721
 20
34.159609
 30
0.0
 11
322.463721
 21
34.159609
 31
0.0
  0
SOLID
  5
212
  8
0
  6
BYBLOCK
 62
     0
 10
322.813721
 20
34.184609
 30
0.0
 11
322.813721
 21
34.134609
 31
0.0
 12
322.963721
 22
34.159609
 32
0.0
 13
322.963721
 23
34.159609
 33
0.0
  0
SOLID
  5
213
  8
0
  6
BYBLOCK
 62
     0
 10
322.463721
 20
34.184609
 30
0.0
 11
322.463721
 21
34.134609
 31
0.0
 12
322.313721
 22
34.159609
 32
0.0
 13
322.313721
 23
34.159609
 33
0.0
  0
TEXT
  8
0
  40
0.075
  5
33C
  62
0
  72
0
  71
0
 10
322.489
 20
34.1019
 30
0.000000
  1
0.65
  7
ROMANC
  0
POINT
  5
215
  8
DEFPOINTS
  6
BYBLOCK
 62
     0
 10
322.963721
 20
34.937329
 30
0.0
  0
POINT
  5
216
  8
DEFPOINTS
  6
BYBLOCK
 62
     0
 10
322.313721
 20
34.937329
 30
0.0
  0
POINT
  5
217
  8
DEFPOINTS
  6
BYBLOCK
 62
     0
 10
322.313721
 20
34.159609
 30
0.0
  0
ENDBLK
  5
218
  8
0
  0
BLOCK
  8
0
  2
*D1
 70
     1
 10
0.0
 20
0.0
 30
0.0
  3
*D1
  1

  0
LINE
  5
21A
  8
0
  6
BYBLOCK
 62
     0
 10
323.663721
 20
34.922329
 30
0.0
 11
323.663721
 21
34.144609
 31
0.0
  0
LINE
  5
21B
  8
0
  6
BYBLOCK
 62
     0
 10
324.313721
 20
34.922329
 30
0.0
 11
324.313721
 21
34.144609
 31
0.0
  0
LINE
  5
21C
  8
0
  6
BYBLOCK
 62
     0
 10
323.813721
 20
34.159609
 30
0.0
 11
324.163721
 21
34.159609
 31
0.0
  0
SOLID
  5
21D
  8
0
  6
BYBLOCK
 62
     0
 10
323.813721
 20
34.184609
 30
0.0
 11
323.813721
 21
34.134609
 31
0.0
 12
323.663721
 22
34.159609
 32
0.0
 13
323.663721
 23
34.159609
 33
0.0
  0
SOLID
  5
21E
  8
0
  6
BYBLOCK
 62
     0
 10
324.163721
 20
34.184609
 30
0.0
 11
324.163721
 21
34.134609
 31
0.0
 12
324.313721
 22
34.159609
 32
0.0
 13
324.313721
 23
34.159609
 33
0.0
  0
TEXT
  8
0
  40
0.075
  5
33D
  62
0
  72
0
  71
0
 10
323.839
 20
34.1019
 30
0.000000
  1
0.65
  7
ROMANC
  0
POINT
  5
220
  8
DEFPOINTS
  6
BYBLOCK
 62
     0
 10
323.663721
 20
34.937329
 30
0.0
  0
POINT
  5
221
  8
DEFPOINTS
  6
BYBLOCK
 62
     0
 10
324.313721
 20
34.937329
 30
0.0
  0
POINT
  5
222
  8
DEFPOINTS
  6
BYBLOCK
 62
     0
 10
324.313721
 20
34.159609
 30
0.0
  0
ENDBLK
  5
223
  8
0
  0
BLOCK
  8
0
  2
*D2
 70
     1
 10
0.0
 20
0.0
 30
0.0
  3
*D2
  1

  0
LINE
  5
225
  8
0
  6
BYBLOCK
 62
     0
 10
322.963721
 20
34.922329
 30
0.0
 11
322.963721
 21
34.144609
 31
0.0
  0
LINE
  5
226
  8
0
  6
BYBLOCK
 62
     0
 10
323.663721
 20
34.907329
 30
0.0
 11
323.663721
 21
34.144609
 31
0.0
  0
LINE
  5
227
  8
0
  6
BYBLOCK
 62
     0
 10
323.113721
 20
34.159609
 30
0.0
 11
323.513721
 21
34.159609
 31
0.0
  0
SOLID
  5
228
  8
0
  6
BYBLOCK
 62
     0
 10
323.113721
 20
34.184609
 30
0.0
 11
323.113721
 21
34.134609
 31
0.0
 12
322.963721
 22
34.159609
 32
0.0
 13
322.963721
 23
34.159609
 33
0.0
  0
SOLID
  5
229
  8
0
  6
BYBLOCK
 62
     0
 10
323.513721
 20
34.184609
 30
0.0
 11
323.513721
 21
34.134609
 31
0.0
 12
323.663721
 22
34.159609
 32
0.0
 13
323.663721
 23
34.159609
 33
0.0
  0
TEXT
  8
0
  40
0.075
  5
33E
  62
0
  72
0
  71
0
 10
323.164
 20
34.1019
 30
0.000000
  1
0.70
  7
ROMANC
  0
POINT
  5
22B
  8
DEFPOINTS
  6
BYBLOCK
 62
     0
 10
322.963721
 20
34.937329
 30
0.0
  0
POINT
  5
22C
  8
DEFPOINTS
  6
BYBLOCK
 62
     0
 10
323.663721
 20
34.922329
 30
0.0
  0
POINT
  5
22D
  8
DEFPOINTS
  6
BYBLOCK
 62
     0
 10
323.663721
 20
34.159609
 30
0.0
  0
ENDBLK
  5
22E
  8
0
  0
BLOCK
  8
0
  2
*D3
 70
     1
 10
0.0
 20
0.0
 30
0.0
  3
*D3
  1

  0
LINE
  5
29C
  8
0
  6
BYBLOCK
 62
     0
 10
322.313721
 20
34.922329
 30
0.0
 11
322.313721
 21
33.853432
 31
0.0
  0
LINE
  5
29D
  8
0
  6
BYBLOCK
 62
     0
 10
324.313721
 20
34.922329
 30
0.0
 11
324.313721
 21
33.853432
 31
0.0
  0
LINE
  5
29E
  8
0
  6
BYBLOCK
 62
     0
 10
322.463721
 20
33.868432
 30
0.0
 11
324.163721
 21
33.868432
 31
0.0
  0
SOLID
  5
29F
  8
0
  6
BYBLOCK
 62
     0
 10
322.463721
 20
33.893432
 30
0.0
 11
322.463721
 21
33.843432
 31
0.0
 12
322.313721
 22
33.868432
 32
0.0
 13
322.313721
 23
33.868432
 33
0.0
  0
SOLID
  5
2A0
  8
0
  6
BYBLOCK
 62
     0
 10
324.163721
 20
33.893432
 30
0.0
 11
324.163721
 21
33.843432
 31
0.0
 12
324.313721
 22
33.868432
 32
0.0
 13
324.313721
 23
33.868432
 33
0.0
  0
TEXT
  8
0
  40
0.075
  5
33F
  62
0
  72
0
  71
0
 10
323.164
 20
33.8107
 30
0.000000
  1
2.00
  7
ROMANC
  0
POINT
  5
2A2
  8
DEFPOINTS
  6
BYBLOCK
 62
     0
 10
322.313721
 20
34.937329
 30
0.0
  0
POINT
  5
2A3
  8
DEFPOINTS
  6
BYBLOCK
 62
     0
 10
324.313721
 20
34.937329
 30
0.0
  0
POINT
  5
2A4
  8
DEFPOINTS
  6
BYBLOCK
 62
     0
 10
324.313721
 20
33.868432
 30
0.0
  0
ENDBLK
  5
2A5
  8
0
  0
BLOCK
  8
0
  2
*D4
 70
     1
 10
0.0
 20
0.0
 30
0.0
  3
*D4
  1

  0
LINE
  5
230
  8
0
  6
BYBLOCK
 62
     0
 10
323.328721
 20
34.437329
 30
0.0
 11
324.712668
 21
34.437329
 31
0.0
  0
LINE
  5
231
  8
0
  6
BYBLOCK
 62
     0
 10
323.678721
 20
34.937329
 30
0.0
 11
324.712668
 21
34.937329
 31
0.0
  0
LINE
  5
232
  8
0
  6
BYBLOCK
 62
     0
 10
324.697668
 20
34.587329
 30
0.0
 11
324.697668
 21
34.787329
 31
0.0
  0
SOLID
  5
233
  8
0
  6
BYBLOCK
 62
     0
 10
324.672668
 20
34.587329
 30
0.0
 11
324.722668
 21
34.587329
 31
0.0
 12
324.697668
 22
34.437329
 32
0.0
 13
324.697668
 23
34.437329
 33
0.0
  0
SOLID
  5
234
  8
0
  6
BYBLOCK
 62
     0
 10
324.672668
 20
34.787329
 30
0.0
 11
324.722668
 21
34.787329
 31
0.0
 12
324.697668
 22
34.937329
 32
0.0
 13
324.697668
 23
34.937329
 33
0.0
  0
TEXT
  8
0
  40
0.075
  5
340
  62
0
  72
0
  71
0
 10
324.473
 20
34.5546
 30
0.000000
  1
0.50
  7
ROMANC
  0
POINT
  5
236
  8
DEFPOINTS
  6
BYBLOCK
 62
     0
 10
323.313721
 20
34.437329
 30
0.0
  0
POINT
  5
237
  8
DEFPOINTS
  6
BYBLOCK
 62
     0
 10
323.663721
 20
34.937329
 30
0.0
  0
POINT
  5
238
  8
DEFPOINTS
  6
BYBLOCK
 62
     0
 10
324.697668
 20
34.937329
 30
0.0
  0
ENDBLK
  5
239
  8
0
  0
BLOCK
  8
0
  2
*D5
 70
     1
 10
0.0
 20
0.0
 30
0.0
  3
*D5
  1

  0
LINE
  5
26C
  8
0
  6
BYBLOCK
 62
     0
 10
324.328721
 20
36.187329
 30
0.0
 11
324.712668
 21
36.187329
 31
0.0
  0
LINE
  5
26D
  8
0
  6
BYBLOCK
 62
     0
 10
324.328721
 20
34.937329
 30
0.0
 11
324.712668
 21
34.937329
 31
0.0
  0
LINE
  5
26E
  8
0
  6
BYBLOCK
 62
     0
 10
324.697668
 20
36.037329
 30
0.0
 11
324.697668
 21
35.087329
 31
0.0
  0
SOLID
  5
26F
  8
0
  6
BYBLOCK
 62
     0
 10
324.672668
 20
36.037329
 30
0.0
 11
324.722668
 21
36.037329
 31
0.0
 12
324.697668
 22
36.187329
 32
0.0
 13
324.697668
 23
36.187329
 33
0.0
  0
SOLID
  5
270
  8
0
  6
BYBLOCK
 62
     0
 10
324.672668
 20
35.087329
 30
0.0
 11
324.722668
 21
35.087329
 31
0.0
 12
324.697668
 22
34.937329
 32
0.0
 13
324.697668
 23
34.937329
 33
0.0
  0
TEXT
  8
0
  40
0.075
  5
341
  62
0
  72
0
  71
0
 10
324.473
 20
35.4296
 30
0.000000
  1
1.25
  7
ROMANC
  0
POINT
  5
272
  8
DEFPOINTS
  6
BYBLOCK
 62
     0
 10
324.313721
 20
36.187329
 30
0.0
  0
POINT
  5
273
  8
DEFPOINTS
  6
BYBLOCK
 62
     0
 10
324.313721
 20
34.937329
 30
0.0
  0
POINT
  5
274
  8
DEFPOINTS
  6
BYBLOCK
 62
     0
 10
324.697668
 20
34.937329
 30
0.0
  0
ENDBLK
  5
275
  8
0
  0
BLOCK
  8
0
  2
*D6
 70
     1
 10
0.0
 20
0.0
 30
0.0
  3
*D6
  1

  0
LINE
  5
277
  8
0
  6
BYBLOCK
 62
     0
 10
323.328721
 20
36.507329
 30
0.0
 11
324.712668
 21
36.507329
 31
0.0
  0
LINE
  5
278
  8
0
  6
BYBLOCK
 62
     0
 10
324.343721
 20
36.187329
 30
0.0
 11
324.712668
 21
36.187329
 31
0.0
  0
LINE
  5
279
  8
0
  6
BYBLOCK
 62
     0
 10
324.697668
 20
36.657329
 30
0.0
 11
324.697668
 21
36.807329
 31
0.0
  0
LINE
  5
27A
  8
0
  6
BYBLOCK
 62
     0
 10
324.697668
 20
36.037329
 30
0.0
 11
324.697668
 21
35.887329
 31
0.0
  0
LINE
  5
27B
  8
0
  6
BYBLOCK
 62
     0
 10
324.697668
 20
36.507329
 30
0.0
 11
324.697668
 21
36.187329
 31
0.0
  0
SOLID
  5
27C
  8
0
  6
BYBLOCK
 62
     0
 10
324.672668
 20
36.657329
 30
0.0
 11
324.722668
 21
36.657329
 31
0.0
 12
324.697668
 22
36.507329
 32
0.0
 13
324.697668
 23
36.507329
 33
0.0
  0
SOLID
  5
27D
  8
0
  6
BYBLOCK
 62
     0
 10
324.672668
 20
36.037329
 30
0.0
 11
324.722668
 21
36.037329
 31
0.0
 12
324.697668
 22
36.187329
 32
0.0
 13
324.697668
 23
36.187329
 33
0.0
  0
TEXT
  8
0
  40
0.075
  5
342
  62
0
  72
0
  71
0
 10
324.473
 20
36.2146
 30
0.000000
  1
0.32
  7
ROMANC
  0
POINT
  5
27F
  8
DEFPOINTS
  6
BYBLOCK
 62
     0
 10
323.313721
 20
36.507329
 30
0.0
  0
POINT
  5
280
  8
DEFPOINTS
  6
BYBLOCK
 62
     0
 10
324.328721
 20
36.187329
 30
0.0
  0
POINT
  5
281
  8
DEFPOINTS
  6
BYBLOCK
 62
     0
 10
324.697668
 20
36.187329
 30
0.0
  0
ENDBLK
  5
282
  8
0
  0
BLOCK
  8
0
  2
*D7
 70
     1
 10
0.0
 20
0.0
 30
0.0
  3
*D7
  1

  0
LINE
  5
23B
  8
0
  6
BYBLOCK
 62
     0
 10
323.328721
 20
36.507329
 30
0.0
 11
325.060102
 21
36.507329
 31
0.0
  0
LINE
  5
23C
  8
0
  6
BYBLOCK
 62
     0
 10
323.328721
 20
34.437329
 30
0.0
 11
325.060102
 21
34.437329
 31
0.0
  0
LINE
  5
23D
  8
0
  6
BYBLOCK
 62
     0
 10
325.045102
 20
36.357329
 30
0.0
 11
325.045102
 21
34.587329
 31
0.0
  0
SOLID
  5
23E
  8
0
  6
BYBLOCK
 62
     0
 10
325.020102
 20
36.357329
 30
0.0
 11
325.070102
 21
36.357329
 31
0.0
 12
325.045102
 22
36.507329
 32
0.0
 13
325.045102
 23
36.507329
 33
0.0
  0
SOLID
  5
23F
  8
0
  6
BYBLOCK
 62
     0
 10
325.020102
 20
34.587329
 30
0.0
 11
325.070102
 21
34.587329
 31
0.0
 12
325.045102
 22
34.437329
 32
0.0
 13
325.045102
 23
34.437329
 33
0.0
  0
TEXT
  8
0
  40
0.075
  5
343
  62
0
  72
0
  71
0
 10
324.820
 20
35.3396
 30
0.000000
  1
2.07
  7
ROMANC
  0
POINT
  5
241
  8
DEFPOINTS
  6
BYBLOCK
 62
     0
 10
323.313721
 20
36.507329
 30
0.0
  0
POINT
  5
242
  8
DEFPOINTS
  6
BYBLOCK
 62
     0
 10
323.313721
 20
34.437329
 30
0.0
  0
POINT
  5
243
  8
DEFPOINTS
  6
BYBLOCK
 62
     0
 10
325.045102
 20
34.437329
 30
0.0
  0
ENDBLK
  5
244
  8
0
  0
BLOCK
  8
0
  2
*D8
 70
     1
 10
0.0
 20
0.0
 30
0.0
  3
*D8
  1

  0
LINE
  5
285
  8
0
  6
BYBLOCK
 62
     0
 10
323.328721
 20
36.487329
 30
0.0
 11
325.00518
 21
36.487329
 31
0.0
  0
LINE
  5
286
  8
0
  6
BYBLOCK
 62
     0
 10
323.328721
 20
34.437329
 30
0.0
 11
325.00518
 21
34.437329
 31
0.0
  0
LINE
  5
287
  8
0
  6
BYBLOCK
 62
     0
 10
324.99018
 20
36.337329
 30
0.0
 11
324.99018
 21
34.587329
 31
0.0
  0
SOLID
  5
288
  8
0
  6
BYBLOCK
 62
     0
 10
324.96518
 20
36.337329
 30
0.0
 11
325.01518
 21
36.337329
 31
0.0
 12
324.99018
 22
36.487329
 32
0.0
 13
324.99018
 23
36.487329
 33
0.0
  0
SOLID
  5
289
  8
0
  6
BYBLOCK
 62
     0
 10
324.96518
 20
34.587329
 30
0.0
 11
325.01518
 21
34.587329
 31
0.0
 12
324.99018
 22
34.437329
 32
0.0
 13
324.99018
 23
34.437329
 33
0.0
  0
TEXT
  8
0
  40
0.075
  5
344
  62
0
  72
0
  71
0
 10
324.765
 20
35.3296
 30
0.000000
  1
2.05
  7
ROMANC
  0
POINT
  5
28B
  8
DEFPOINTS
  6
BYBLOCK
 62
     0
 10
323.313721
 20
36.487329
 30
0.0
  0
POINT
  5
28C
  8
DEFPOINTS
  6
BYBLOCK
 62
     0
 10
323.313721
 20
34.437329
 30
0.0
  0
POINT
  5
28D
  8
DEFPOINTS
  6
BYBLOCK
 62
     0
 10
324.99018
 20
34.437329
 30
0.0
  0
ENDBLK
  5
28E
  8
0
  0
BLOCK
  8
0
  2
*D9
 70
     1
 10
0.0
 20
0.0
 30
0.0
  3
*D9
  1

  0
LINE
  5
2AD
  8
0
  6
BYBLOCK
 62
     0
 10
322.463721
 20
36.187329
 30
0.0
 11
324.163721
 21
36.187329
 31
0.0
  0
SOLID
  5
2AE
  8
0
  6
BYBLOCK
 62
     0
 10
322.463721
 20
36.212329
 30
0.0
 11
322.463721
 21
36.162329
 31
0.0
 12
322.313721
 22
36.187329
 32
0.0
 13
322.313721
 23
36.187329
 33
0.0
  0
SOLID
  5
2AF
  8
0
  6
BYBLOCK
 62
     0
 10
324.163721
 20
36.212329
 30
0.0
 11
324.163721
 21
36.162329
 31
0.0
 12
324.313721
 22
36.187329
 32
0.0
 13
324.313721
 23
36.187329
 33
0.0
  0
TEXT
  8
0
  40
0.075
  5
345
  62
0
  72
0
  71
0
 10
323.164
 20
36.1296
 30
0.000000
  1
2.00
  7
ROMANC
  0
POINT
  5
2B1
  8
DEFPOINTS
  6
BYBLOCK
 62
     0
 10
322.313721
 20
36.187329
 30
0.0
  0
POINT
  5
2B2
  8
DEFPOINTS
  6
BYBLOCK
 62
     0
 10
324.313721
 20
36.187329
 30
0.0
  0
POINT
  5
2B3
  8
DEFPOINTS
  6
BYBLOCK
 62
     0
 10
324.313721
 20
36.187329
 30
0.0
  0
ENDBLK
  5
2B4
  8
0
  0
ENDSEC
  0
SECTION
  2
ENTITIES
  0
LINE
  5
27
  8
0
 10
329.348696
 20
29.863623
 30
0.0
 11
329.348696
 21
44.713623
 31
0.0
  0
LINE
  5
28
  8
0
 10
318.848696
 20
44.713623
 30
0.0
 11
318.848696
 21
29.863623
 31
0.0
  0
LINE
  5
29
  8
0
 10
318.848696
 20
29.863623
 30
0.0
 11
329.348696
 21
29.863623
 31
0.0
  0
TEXT
  5
2A
  8
0
 10
321.773149
 20
42.309482
 30
0.0
 40
0.3
  1
TIPUS   NT318B
  7
ROMANC
  0
TEXT
  5
2D
  8
0
 10
321.735227
 20
40.527599
 30
0.0
 40
0.3
  1
P = 72,6 dm
  7
ROMANC
  0
TEXT
  5
2E
  8
0
 10
321.786243
 20
41.225178
 30
0.0
 40
0.3
  1
S = 318 dm
  7
ROMANC
  0
TEXT
  5
2F
  8
0
 10
321.773149
 20
41.823768
 30
0.0
 40
0.3
  1
ESCALA  1:50
  7
ROMANC
  0
TEXT
  5
30
  8
0
 10
324.991178
 20
41.531094
 30
0.0
 40
0.1
  1
2
  7
ROMANC
  0
LINE
  5
31
  8
0
 10
329.348696
 20
44.713623
 30
0.0
 11
318.848696
 21
44.713623
 31
0.0
  0
LINE
  5
2B9
  8
0
  6
BYBLOCK
 62
     0
 10
322.463721
 20
36.187329
 30
0.0
 11
324.163721
 21
36.187329
 31
0.0
  0
SOLID
  5
2BA
  8
0
  6
BYBLOCK
 62
     0
 10
322.463721
 20
36.212329
 30
0.0
 11
322.463721
 21
36.162329
 31
0.0
 12
322.313721
 22
36.187329
 32
0.0
 13
322.313721
 23
36.187329
 33
0.0
  0
SOLID
  5
2BB
  8
0
  6
BYBLOCK
 62
     0
 10
324.163721
 20
36.212329
 30
0.0
 11
324.163721
 21
36.162329
 31
0.0
 12
324.313721
 22
36.187329
 32
0.0
 13
324.313721
 23
36.187329
 33
0.0
  0
TEXT
  8
0
  40
0.075
  5
346
  62
0
  72
0
  71
0
 10
323.164
 20
36.1296
 30
0.000000
  1
2.00
  7
ROMANC
  0
POINT
  5
2BD
  8
DEFPOINTS
  6
BYBLOCK
 62
     0
 10
322.313721
 20
36.187329
 30
0.0
  0
POINT
  5
2BE
  8
DEFPOINTS
  6
BYBLOCK
 62
     0
 10
324.313721
 20
36.187329
 30
0.0
  0
POINT
  5
2BF
  8
DEFPOINTS
  6
BYBLOCK
 62
     0
 10
324.313721
 20
36.187329
 30
0.0
  0
LINE
  5
2C0
  8
0
 10
322.963063
 20
34.793827
 30
0.0
 11
322.993183
 21
34.690479
 31
0.0
  0
LINE
  5
2C1
  8
0
 10
322.993183
 20
34.690479
 30
0.0
 11
323.035847
 21
34.602869
 31
0.0
  0
LINE
  5
2C2
  8
0
 10
323.035847
 20
34.602869
 30
0.0
 11
323.095595
 21
34.523928
 31
0.0
  0
LINE
  5
2C3
  8
0
 10
323.095595
 20
34.523928
 30
0.0
 11
323.168355
 21
34.4646
 31
0.0
  0
LINE
  5
2C4
  8
0
 10
323.168355
 20
34.4646
 30
0.0
 11
323.240464
 21
34.432608
 31
0.0
  0
LINE
  5
2C5
  8
0
 10
323.240464
 20
34.432608
 30
0.0
 11
323.314132
 21
34.42212
 31
0.0
  0
LINE
  5
2C6
  8
0
 10
323.314132
 20
34.42212
 30
0.0
 11
323.414044
 21
34.441894
 31
0.0
  0
LINE
  5
2C7
  8
0
 10
323.414044
 20
34.441894
 30
0.0
 11
323.476265
 21
34.475884
 31
0.0
  0
LINE
  5
2C8
  8
0
 10
323.476265
 20
34.475884
 30
0.0
 11
323.538553
 21
34.531193
 31
0.0
  0
LINE
  5
2C9
  8
0
 10
323.538553
 20
34.531193
 30
0.0
 11
323.583362
 21
34.589763
 31
0.0
  0
LINE
  5
2CA
  8
0
 10
323.583362
 20
34.589763
 30
0.0
 11
323.615844
 21
34.647865
 31
0.0
  0
LINE
  5
2CB
  8
0
 10
323.615844
 20
34.647865
 30
0.0
 11
323.652672
 21
34.745829
 31
0.0
  0
LINE
  5
2CC
  8
0
 10
323.652672
 20
34.745829
 30
0.0
 11
323.668593
 21
34.816442
 31
0.0
  0
LINE
  5
2CD
  8
0
 10
323.668593
 20
34.816442
 30
0.0
 11
323.677511
 21
34.922329
 31
0.0
  0
LINE
  5
2CE
  8
0
 10
323.677511
 20
34.922329
 30
0.0
 11
324.328721
 21
34.922329
 31
0.0
  0
LINE
  5
2CF
  8
0
 10
324.328721
 20
34.922329
 30
0.0
 11
324.328721
 21
36.195385
 31
0.0
  0
ARC
  5
2D0
  8
0
 10
323.313721
 20
34.670663
 30
0.0
 40
1.831667
 50
56.348491
 51
123.651509
  0
LINE
  5
2D1
  8
0
 10
322.298721
 20
36.195385
 30
0.0
 11
322.298721
 21
34.922329
 31
0.0
  0
LINE
  5
2D2
  8
0
 10
322.298721
 20
34.922329
 30
0.0
 11
322.950153
 21
34.922329
 31
0.0
  0
LINE
  5
2D3
  8
0
 10
322.950153
 20
34.922329
 30
0.0
 11
322.963063
 21
34.793827
 31
0.0
  0
LINE
  5
2D4
  8
0
 10
322.970457
 20
34.795263
 30
0.0
 11
323.000205
 21
34.693189
 31
0.0
  0
LINE
  5
2D5
  8
0
 10
323.000205
 20
34.693189
 30
0.0
 11
323.04227
 21
34.606812
 31
0.0
  0
LINE
  5
2D6
  8
0
 10
323.04227
 20
34.606812
 30
0.0
 11
323.101032
 21
34.529171
 31
0.0
  0
LINE
  5
2D7
  8
0
 10
323.101032
 20
34.529171
 30
0.0
 11
323.172316
 21
34.471048
 31
0.0
  0
LINE
  5
2D8
  8
0
 10
323.172316
 20
34.471048
 30
0.0
 11
323.242553
 21
34.439887
 31
0.0
  0
LINE
  5
2D9
  8
0
 10
323.242553
 20
34.439887
 30
0.0
 11
323.313927
 21
34.429725
 31
0.0
  0
LINE
  5
2DA
  8
0
 10
323.313927
 20
34.429725
 30
0.0
 11
323.411459
 21
34.449028
 31
0.0
  0
LINE
  5
2DB
  8
0
 10
323.411459
 20
34.449028
 30
0.0
 11
323.471922
 21
34.482057
 31
0.0
  0
LINE
  5
2DC
  8
0
 10
323.471922
 20
34.482057
 30
0.0
 11
323.533034
 21
34.536323
 31
0.0
  0
LINE
  5
2DD
  8
0
 10
323.533034
 20
34.536323
 30
0.0
 11
323.577078
 21
34.593892
 31
0.0
  0
LINE
  5
2DE
  8
0
 10
323.577078
 20
34.593892
 30
0.0
 11
323.609022
 21
34.651032
 31
0.0
  0
LINE
  5
2DF
  8
0
 10
323.609022
 20
34.651032
 30
0.0
 11
323.64547
 21
34.747983
 31
0.0
  0
LINE
  5
2E0
  8
0
 10
323.64547
 20
34.747983
 30
0.0
 11
323.661163
 21
34.817587
 31
0.0
  0
LINE
  5
2E1
  8
0
 10
323.661163
 20
34.817587
 30
0.0
 11
323.670616
 21
34.929829
 31
0.0
  0
LINE
  5
2E2
  8
0
 10
323.670616
 20
34.929829
 30
0.0
 11
324.321221
 21
34.929829
 31
0.0
  0
LINE
  5
2E3
  8
0
 10
324.321221
 20
34.929829
 30
0.0
 11
324.321221
 21
36.191362
 31
0.0
  0
ARC
  5
2E4
  8
0
 10
323.313721
 20
34.670663
 30
0.0
 40
1.824167
 50
56.474574
 51
123.525426
  0
LINE
  5
2E5
  8
0
 10
322.306221
 20
36.191362
 30
0.0
 11
322.306221
 21
34.929829
 31
0.0
  0
LINE
  5
2E6
  8
0
 10
322.306221
 20
34.929829
 30
0.0
 11
322.956937
 21
34.929829
 31
0.0
  0
LINE
  5
2E7
  8
0
 10
322.956937
 20
34.929829
 30
0.0
 11
322.970457
 21
34.795263
 31
0.0
  0
LINE
  5
2E8
  8
0
 10
322.97785
 20
34.7967
 30
0.0
 11
323.007227
 21
34.6959
 31
0.0
  0
LINE
  5
2E9
  8
0
 10
323.007227
 20
34.6959
 30
0.0
 11
323.048692
 21
34.610754
 31
0.0
  0
LINE
  5
2EA
  8
0
 10
323.048692
 20
34.610754
 30
0.0
 11
323.106469
 21
34.534415
 31
0.0
  0
LINE
  5
2EB
  8
0
 10
323.106469
 20
34.534415
 30
0.0
 11
323.176276
 21
34.477496
 31
0.0
  0
LINE
  5
2EC
  8
0
 10
323.176276
 20
34.477496
 30
0.0
 11
323.244642
 21
34.447165
 31
0.0
  0
LINE
  5
2ED
  8
0
 10
323.244642
 20
34.447165
 30
0.0
 11
323.313721
 21
34.437329
 31
0.0
  0
LINE
  5
2EE
  8
0
 10
323.313721
 20
34.437329
 30
0.0
 11
323.408874
 21
34.456161
 31
0.0
  0
LINE
  5
2EF
  8
0
 10
323.408874
 20
34.456161
 30
0.0
 11
323.467579
 21
34.488231
 31
0.0
  0
LINE
  5
2F0
  8
0
 10
323.467579
 20
34.488231
 30
0.0
 11
323.527516
 21
34.541453
 31
0.0
  0
LINE
  5
2F1
  8
0
 10
323.527516
 20
34.541453
 30
0.0
 11
323.570795
 21
34.598022
 31
0.0
  0
LINE
  5
2F2
  8
0
 10
323.570795
 20
34.598022
 30
0.0
 11
323.602201
 21
34.654199
 31
0.0
  0
LINE
  5
2F3
  8
0
 10
323.602201
 20
34.654199
 30
0.0
 11
323.638267
 21
34.750138
 31
0.0
  0
LINE
  5
2F4
  8
0
 10
323.638267
 20
34.750138
 30
0.0
 11
323.653733
 21
34.818732
 31
0.0
  0
LINE
  5
2F5
  8
0
 10
323.653733
 20
34.818732
 30
0.0
 11
323.663721
 21
34.937329
 31
0.0
  0
LINE
  5
2F6
  8
0
 10
323.663721
 20
34.937329
 30
0.0
 11
324.313721
 21
34.937329
 31
0.0
  0
LINE
  5
2F7
  8
0
 10
324.313721
 20
34.937329
 30
0.0
 11
324.313721
 21
36.187329
 31
0.0
  0
ARC
  5
2F8
  8
0
 10
323.313721
 20
34.670663
 30
0.0
 40
1.816667
 50
56.601512
 51
123.398488
  0
LINE
  5
2F9
  8
0
 10
322.313721
 20
36.187329
 30
0.0
 11
322.313721
 21
34.937329
 31
0.0
  0
LINE
  5
2FA
  8
0
 10
322.313721
 20
34.937329
 30
0.0
 11
322.963721
 21
34.937329
 31
0.0
  0
LINE
  5
2FB
  8
0
 10
322.963721
 20
34.937329
 30
0.0
 11
322.97785
 21
34.7967
 31
0.0
  0
LINE
  5
2FC
  8
0
  6
BYBLOCK
 62
     0
 10
323.328721
 20
36.487329
 30
0.0
 11
325.00518
 21
36.487329
 31
0.0
  0
LINE
  5
2FD
  8
0
  6
BYBLOCK
 62
     0
 10
323.328721
 20
34.437329
 30
0.0
 11
325.00518
 21
34.437329
 31
0.0
  0
LINE
  5
2FE
  8
0
  6
BYBLOCK
 62
     0
 10
324.99018
 20
36.337329
 30
0.0
 11
324.99018
 21
34.587329
 31
0.0
  0
SOLID
  5
2FF
  8
0
  6
BYBLOCK
 62
     0
 10
324.96518
 20
36.337329
 30
0.0
 11
325.01518
 21
36.337329
 31
0.0
 12
324.99018
 22
36.487329
 32
0.0
 13
324.99018
 23
36.487329
 33
0.0
  0
SOLID
  5
300
  8
0
  6
BYBLOCK
 62
     0
 10
324.96518
 20
34.587329
 30
0.0
 11
325.01518
 21
34.587329
 31
0.0
 12
324.99018
 22
34.437329
 32
0.0
 13
324.99018
 23
34.437329
 33
0.0
  0
TEXT
  8
0
  40
0.075
  5
347
  62
0
  72
0
  71
0
 10
324.765
 20
35.3296
 30
0.000000
  1
2.05
  7
ROMANC
  0
POINT
  5
302
  8
DEFPOINTS
  6
BYBLOCK
 62
     0
 10
323.313721
 20
36.487329
 30
0.0
  0
POINT
  5
303
  8
DEFPOINTS
  6
BYBLOCK
 62
     0
 10
323.313721
 20
34.437329
 30
0.0
  0
POINT
  5
304
  8
DEFPOINTS
  6
BYBLOCK
 62
     0
 10
324.99018
 20
34.437329
 30
0.0
  0
LINE
  5
305
  8
0
  6
BYBLOCK
 62
     0
 10
324.328721
 20
36.187329
 30
0.0
 11
324.712668
 21
36.187329
 31
0.0
  0
LINE
  5
306
  8
0
  6
BYBLOCK
 62
     0
 10
324.328721
 20
34.937329
 30
0.0
 11
324.712668
 21
34.937329
 31
0.0
  0
LINE
  5
307
  8
0
  6
BYBLOCK
 62
     0
 10
324.697668
 20
36.037329
 30
0.0
 11
324.697668
 21
35.087329
 31
0.0
  0
SOLID
  5
308
  8
0
  6
BYBLOCK
 62
     0
 10
324.672668
 20
36.037329
 30
0.0
 11
324.722668
 21
36.037329
 31
0.0
 12
324.697668
 22
36.187329
 32
0.0
 13
324.697668
 23
36.187329
 33
0.0
  0
SOLID
  5
309
  8
0
  6
BYBLOCK
 62
     0
 10
324.672668
 20
35.087329
 30
0.0
 11
324.722668
 21
35.087329
 31
0.0
 12
324.697668
 22
34.937329
 32
0.0
 13
324.697668
 23
34.937329
 33
0.0
  0
TEXT
  8
0
  40
0.075
  5
348
  62
0
  72
0
  71
0
 10
324.473
 20
35.4296
 30
0.000000
  1
1.25
  7
ROMANC
  0
POINT
  5
30B
  8
DEFPOINTS
  6
BYBLOCK
 62
     0
 10
324.313721
 20
36.187329
 30
0.0
  0
POINT
  5
30C
  8
DEFPOINTS
  6
BYBLOCK
 62
     0
 10
324.313721
 20
34.937329
 30
0.0
  0
POINT
  5
30D
  8
DEFPOINTS
  6
BYBLOCK
 62
     0
 10
324.697668
 20
34.937329
 30
0.0
  0
LINE
  5
30E
  8
0
  6
BYBLOCK
 62
     0
 10
323.328721
 20
34.437329
 30
0.0
 11
324.712668
 21
34.437329
 31
0.0
  0
LINE
  5
30F
  8
0
  6
BYBLOCK
 62
     0
 10
323.678721
 20
34.937329
 30
0.0
 11
324.712668
 21
34.937329
 31
0.0
  0
LINE
  5
310
  8
0
  6
BYBLOCK
 62
     0
 10
324.697668
 20
34.587329
 30
0.0
 11
324.697668
 21
34.787329
 31
0.0
  0
SOLID
  5
311
  8
0
  6
BYBLOCK
 62
     0
 10
324.672668
 20
34.587329
 30
0.0
 11
324.722668
 21
34.587329
 31
0.0
 12
324.697668
 22
34.437329
 32
0.0
 13
324.697668
 23
34.437329
 33
0.0
  0
SOLID
  5
312
  8
0
  6
BYBLOCK
 62
     0
 10
324.672668
 20
34.787329
 30
0.0
 11
324.722668
 21
34.787329
 31
0.0
 12
324.697668
 22
34.937329
 32
0.0
 13
324.697668
 23
34.937329
 33
0.0
  0
TEXT
  8
0
  40
0.075
  5
349
  62
0
  72
0
  71
0
 10
324.473
 20
34.5546
 30
0.000000
  1
0.50
  7
ROMANC
  0
POINT
  5
314
  8
DEFPOINTS
  6
BYBLOCK
 62
     0
 10
323.313721
 20
34.437329
 30
0.0
  0
POINT
  5
315
  8
DEFPOINTS
  6
BYBLOCK
 62
     0
 10
323.663721
 20
34.937329
 30
0.0
  0
POINT
  5
316
  8
DEFPOINTS
  6
BYBLOCK
 62
     0
 10
324.697668
 20
34.937329
 30
0.0
  0
LINE
  5
317
  8
0
  6
BYBLOCK
 62
     0
 10
322.313721
 20
34.922329
 30
0.0
 11
322.313721
 21
33.853432
 31
0.0
  0
LINE
  5
318
  8
0
  6
BYBLOCK
 62
     0
 10
324.313721
 20
34.922329
 30
0.0
 11
324.313721
 21
33.853432
 31
0.0
  0
LINE
  5
319
  8
0
  6
BYBLOCK
 62
     0
 10
322.463721
 20
33.868432
 30
0.0
 11
324.163721
 21
33.868432
 31
0.0
  0
SOLID
  5
31A
  8
0
  6
BYBLOCK
 62
     0
 10
322.463721
 20
33.893432
 30
0.0
 11
322.463721
 21
33.843432
 31
0.0
 12
322.313721
 22
33.868432
 32
0.0
 13
322.313721
 23
33.868432
 33
0.0
  0
SOLID
  5
31B
  8
0
  6
BYBLOCK
 62
     0
 10
324.163721
 20
33.893432
 30
0.0
 11
324.163721
 21
33.843432
 31
0.0
 12
324.313721
 22
33.868432
 32
0.0
 13
324.313721
 23
33.868432
 33
0.0
  0
TEXT
  8
0
  40
0.075
  5
34A
  62
0
  72
0
  71
0
 10
323.164
 20
33.8107
 30
0.000000
  1
2.00
  7
ROMANC
  0
POINT
  5
31D
  8
DEFPOINTS
  6
BYBLOCK
 62
     0
 10
322.313721
 20
34.937329
 30
0.0
  0
POINT
  5
31E
  8
DEFPOINTS
  6
BYBLOCK
 62
     0
 10
324.313721
 20
34.937329
 30
0.0
  0
POINT
  5
31F
  8
DEFPOINTS
  6
BYBLOCK
 62
     0
 10
324.313721
 20
33.868432
 30
0.0
  0
LINE
  5
320
  8
0
  6
BYBLOCK
 62
     0
 10
322.963721
 20
34.922329
 30
0.0
 11
322.963721
 21
34.144609
 31
0.0
  0
LINE
  5
321
  8
0
  6
BYBLOCK
 62
     0
 10
323.663721
 20
34.907329
 30
0.0
 11
323.663721
 21
34.144609
 31
0.0
  0
LINE
  5
322
  8
0
  6
BYBLOCK
 62
     0
 10
323.113721
 20
34.159609
 30
0.0
 11
323.513721
 21
34.159609
 31
0.0
  0
SOLID
  5
323
  8
0
  6
BYBLOCK
 62
     0
 10
323.113721
 20
34.184609
 30
0.0
 11
323.113721
 21
34.134609
 31
0.0
 12
322.963721
 22
34.159609
 32
0.0
 13
322.963721
 23
34.159609
 33
0.0
  0
SOLID
  5
324
  8
0
  6
BYBLOCK
 62
     0
 10
323.513721
 20
34.184609
 30
0.0
 11
323.513721
 21
34.134609
 31
0.0
 12
323.663721
 22
34.159609
 32
0.0
 13
323.663721
 23
34.159609
 33
0.0
  0
TEXT
  8
0
  40
0.075
  5
34B
  62
0
  72
0
  71
0
 10
323.164
 20
34.1019
 30
0.000000
  1
0.70
  7
ROMANC
  0
POINT
  5
326
  8
DEFPOINTS
  6
BYBLOCK
 62
     0
 10
322.963721
 20
34.937329
 30
0.0
  0
POINT
  5
327
  8
DEFPOINTS
  6
BYBLOCK
 62
     0
 10
323.663721
 20
34.922329
 30
0.0
  0
POINT
  5
328
  8
DEFPOINTS
  6
BYBLOCK
 62
     0
 10
323.663721
 20
34.159609
 30
0.0
  0
LINE
  5
329
  8
0
  6
BYBLOCK
 62
     0
 10
323.663721
 20
34.922329
 30
0.0
 11
323.663721
 21
34.144609
 31
0.0
  0
LINE
  5
32A
  8
0
  6
BYBLOCK
 62
     0
 10
324.313721
 20
34.922329
 30
0.0
 11
324.313721
 21
34.144609
 31
0.0
  0
LINE
  5
32B
  8
0
  6
BYBLOCK
 62
     0
 10
323.813721
 20
34.159609
 30
0.0
 11
324.163721
 21
34.159609
 31
0.0
  0
SOLID
  5
32C
  8
0
  6
BYBLOCK
 62
     0
 10
323.813721
 20
34.184609
 30
0.0
 11
323.813721
 21
34.134609
 31
0.0
 12
323.663721
 22
34.159609
 32
0.0
 13
323.663721
 23
34.159609
 33
0.0
  0
SOLID
  5
32D
  8
0
  6
BYBLOCK
 62
     0
 10
324.163721
 20
34.184609
 30
0.0
 11
324.163721
 21
34.134609
 31
0.0
 12
324.313721
 22
34.159609
 32
0.0
 13
324.313721
 23
34.159609
 33
0.0
  0
TEXT
  8
0
  40
0.075
  5
34C
  62
0
  72
0
  71
0
 10
323.839
 20
34.1019
 30
0.000000
  1
0.65
  7
ROMANC
  0
POINT
  5
32F
  8
DEFPOINTS
  6
BYBLOCK
 62
     0
 10
323.663721
 20
34.937329
 30
0.0
  0
POINT
  5
330
  8
DEFPOINTS
  6
BYBLOCK
 62
     0
 10
324.313721
 20
34.937329
 30
0.0
  0
POINT
  5
331
  8
DEFPOINTS
  6
BYBLOCK
 62
     0
 10
324.313721
 20
34.159609
 30
0.0
  0
LINE
  5
332
  8
0
  6
BYBLOCK
 62
     0
 10
322.963721
 20
34.922329
 30
0.0
 11
322.963721
 21
34.144609
 31
0.0
  0
LINE
  5
333
  8
0
  6
BYBLOCK
 62
     0
 10
322.313721
 20
34.922329
 30
0.0
 11
322.313721
 21
34.144609
 31
0.0
  0
LINE
  5
334
  8
0
  6
BYBLOCK
 62
     0
 10
322.813721
 20
34.159609
 30
0.0
 11
322.463721
 21
34.159609
 31
0.0
  0
SOLID
  5
335
  8
0
  6
BYBLOCK
 62
     0
 10
322.813721
 20
34.184609
 30
0.0
 11
322.813721
 21
34.134609
 31
0.0
 12
322.963721
 22
34.159609
 32
0.0
 13
322.963721
 23
34.159609
 33
0.0
  0
SOLID
  5
336
  8
0
  6
BYBLOCK
 62
     0
 10
322.463721
 20
34.184609
 30
0.0
 11
322.463721
 21
34.134609
 31
0.0
 12
322.313721
 22
34.159609
 32
0.0
 13
322.313721
 23
34.159609
 33
0.0
  0
TEXT
  8
0
  40
0.075
  5
34D
  62
0
  72
0
  71
0
 10
322.489
 20
34.1019
 30
0.000000
  1
0.65
  7
ROMANC
  0
POINT
  5
338
  8
DEFPOINTS
  6
BYBLOCK
 62
     0
 10
322.963721
 20
34.937329
 30
0.0
  0
POINT
  5
339
  8
DEFPOINTS
  6
BYBLOCK
 62
     0
 10
322.313721
 20
34.937329
 30
0.0
  0
POINT
  5
33A
  8
DEFPOINTS
  6
BYBLOCK
 62
     0
 10
322.313721
 20
34.159609
 30
0.0
  0
ENDSEC
  0
EOF
