  0
SECTION
  2
HEADER
  9
$ACADVER
  1
AC1009
  9
$INSBASE
 10
33.842437
 20
47.699238
 30
0.0
  9
$EXTMIN
 10
33.842437
 20
47.699238
 30
0.0
  9
$EXTMAX
 10
44.342437
 20
62.549238
 30
0.0
  9
$LIMMIN
 10
0.0
 20
0.0
  9
$LIMMAX
 10
410.0
 20
287.0
  9
$ORTHOMODE
 70
     1
  9
$REGENMODE
 70
     1
  9
$FILLMODE
 70
     1
  9
$QTEXTMODE
 70
     0
  9
$MIRRTEXT
 70
     1
  9
$DRAGMODE
 70
     2
  9
$LTSCALE
 40
25.0
  9
$OSMODE
 70
    32
  9
$ATTMODE
 70
     1
  9
$TEXTSIZE
 40
0.1
  9
$TRACEWID
 40
1.0
  9
$TEXTSTYLE
  7
ROMANC
  9
$CLAYER
  8
0
  9
$CELTYPE
  6
BYLAYER
  9
$CECOLOR
 62
   256
  9
$DIMSCALE
 40
0.0
  9
$DIMASZ
 40
0.0
  9
$DIMEXO
 40
0.1
  9
$DIMDLI
 40
7.0
  9
$DIMRND
 40
0.0
  9
$DIMDLE
 40
0.0
  9
$DIMEXE
 40
1.8
  9
$DIMTP
 40
0.0
  9
$DIMTM
 40
0.0
  9
$DIMTXT
 40
0.03
  9
$DIMCEN
 40
1.5
  9
$DIMTSZ
 40
1.0
  9
$DIMTOL
 70
     0
  9
$DIMLIM
 70
     0
  9
$DIMTIH
 70
     0
  9
$DIMTOH
 70
     0
  9
$DIMSE1
 70
     0
  9
$DIMSE2
 70
     0
  9
$DIMTAD
 70
     0
  9
$DIMZIN
 70
     0
  9
$DIMBLK
  1

  9
$DIMASO
 70
     1
  9
$DIMSHO
 70
     0
  9
$DIMPOST
  1

  9
$DIMAPOST
  1

  9
$DIMALT
 70
     0
  9
$DIMALTD
 70
     2
  9
$DIMALTF
 40
25.4
  9
$DIMLFAC
 40
1.0
  9
$DIMTOFL
 70
     1
  9
$DIMTVP
 40
0.0
  9
$DIMTIX
 70
     1
  9
$DIMSOXD
 70
     0
  9
$DIMSAH
 70
     0
  9
$DIMBLK1
  1

  9
$DIMBLK2
  1

  9
$DIMSTYLE
  2
*UNNAMED
  9
$DIMCLRD
 70
     0
  9
$DIMCLRE
 70
     0
  9
$DIMCLRT
 70
     0
  9
$DIMTFAC
 40
116.666667
  9
$DIMGAP
 40
0.09
  9
$LUNITS
 70
     2
  9
$LUPREC
 70
     2
  9
$SKETCHINC
 40
1.0
  9
$FILLETRAD
 40
0.0
  9
$AUNITS
 70
     0
  9
$AUPREC
 70
     0
  9
$MENU
  1
acad
  9
$ELEVATION
 40
0.0
  9
$PELEVATION
 40
0.0
  9
$THICKNESS
 40
0.0
  9
$LIMCHECK
 70
     0
  9
$BLIPMODE
 70
     0
  9
$CHAMFERA
 40
0.0
  9
$CHAMFERB
 40
0.0
  9
$SKPOLY
 70
     0
  9
$TDCREATE
 40
2449962.443994329
  9
$TDUPDATE
 40
2450828.522321643
  9
$TDINDWG
 40
0.0099456019
  9
$TDUSRTIMER
 40
0.0099456019
  9
$USRTIMER
 70
     1
  9
$ANGBASE
 50
0.0
  9
$ANGDIR
 70
     0
  9
$PDMODE
 70
     0
  9
$PDSIZE
 40
0.0
  9
$PLINEWID
 40
0.0
  9
$COORDS
 70
     2
  9
$SPLFRAME
 70
     0
  9
$SPLINETYPE
 70
     6
  9
$SPLINESEGS
 70
     8
  9
$ATTDIA
 70
     0
  9
$ATTREQ
 70
     1
  9
$HANDLING
 70
     0
  9
$HANDSEED
  5
0
  9
$SURFTAB1
 70
     6
  9
$SURFTAB2
 70
     6
  9
$SURFTYPE
 70
     6
  9
$SURFU
 70
     6
  9
$SURFV
 70
     6
  9
$UCSNAME
  2

  9
$UCSORG
 10
0.0
 20
0.0
 30
0.0
  9
$UCSXDIR
 10
1.0
 20
0.0
 30
0.0
  9
$UCSYDIR
 10
0.0
 20
1.0
 30
0.0
  9
$PUCSNAME
  2

  9
$PUCSORG
 10
0.0
 20
0.0
 30
0.0
  9
$PUCSXDIR
 10
1.0
 20
0.0
 30
0.0
  9
$PUCSYDIR
 10
0.0
 20
1.0
 30
0.0
  9
$USERI1
 70
     0
  9
$USERI2
 70
     0
  9
$USERI3
 70
     0
  9
$USERI4
 70
     0
  9
$USERI5
 70
     0
  9
$USERR1
 40
0.0
  9
$USERR2
 40
0.0
  9
$USERR3
 40
0.0
  9
$USERR4
 40
0.0
  9
$USERR5
 40
0.0
  9
$WORLDVIEW
 70
     1
  9
$SHADEDGE
 70
     3
  9
$SHADEDIF
 70
    70
  9
$TILEMODE
 70
     1
  9
$MAXACTVP
 70
    16
  9
$PINSBASE
 10
0.0
 20
0.0
 30
0.0
  9
$PLIMCHECK
 70
     0
  9
$PEXTMIN
 10
1.000000E+20
 20
1.000000E+20
 30
1.000000E+20
  9
$PEXTMAX
 10
-1.000000E+20
 20
-1.000000E+20
 30
-1.000000E+20
  9
$PLIMMIN
 10
0.0
 20
0.0
  9
$PLIMMAX
 10
12.0
 20
9.0
  9
$UNITMODE
 70
     0
  9
$VISRETAIN
 70
     0
  9
$PLINEGEN
 70
     0
  9
$PSLTSCALE
 70
     0
  9
$TREEDEPTH
 70
  3020
  9
$DWGCODEPAGE
  3
iso8859-1
  0
ENDSEC
  0
SECTION
  2
TABLES
  0
TABLE
  2
VPORT
 70
     2
  0
VPORT
  2
*ACTIVE
 70
     0
 10
0.0
 20
0.0
 11
1.0
 21
1.0
 12
45.804287
 22
55.124238
 13
0.0
 23
0.0
 14
1.0
 24
1.0
 15
10.0
 25
10.0
 16
0.0
 26
0.0
 36
1.0
 17
0.0
 27
0.0
 37
0.0
 40
14.85
 41
1.611024
 42
50.0
 43
0.0
 44
0.0
 50
0.0
 51
0.0
 71
     0
 72
   100
 73
     1
 74
     0
 75
     0
 76
     0
 77
     0
 78
     2
  0
ENDTAB
  0
TABLE
  2
LTYPE
 70
     1
  0
LTYPE
  2
CONTINUOUS
 70
    64
  3
Solid line
 72
    65
 73
     0
 40
0.0
  0
ENDTAB
  0
TABLE
  2
LAYER
 70
     1
  0
LAYER
  2
0
 70
    64
 62
     7
  6
CONTINUOUS
  0
ENDTAB
  0
TABLE
  2
STYLE
 70
     2
  0
STYLE
  2
STANDARD
 70
     0
 40
0.0
 41
1.0
 50
0.0
 71
     0
 42
0.1
  3
txt
  4

  0
STYLE
  2
ROMANC
 70
    64
 40
0.0
 41
1.0
 50
0.0
 71
     0
 42
0.1
  3
romanc
  4

  0
ENDTAB
  0
TABLE
  2
VIEW
 70
     0
  0
ENDTAB
  0
TABLE
  2
UCS
 70
     0
  0
ENDTAB
  0
TABLE
  2
APPID
 70
     1
  0
APPID
  2
ACAD
 70
    64
  0
ENDTAB
  0
TABLE
  2
DIMSTYLE
 70
     0
  0
ENDTAB
  0
ENDSEC
  0
SECTION
  2
BLOCKS
  0
ENDSEC
  0
SECTION
  2
ENTITIES
  0
LINE
  8
0
 10
44.342437
 20
62.549238
 30
0.0
 11
33.842437
 21
62.549238
 31
0.0
  0
LINE
  8
0
 10
33.842437
 20
62.549238
 30
0.0
 11
33.842437
 21
47.699238
 31
0.0
  0
LINE
  8
0
 10
44.342437
 20
47.699238
 30
0.0
 11
44.342437
 21
62.549238
 31
0.0
  0
LINE
  8
0
 10
33.842437
 20
47.699238
 30
0.0
 11
44.342437
 21
47.699238
 31
0.0
  0
TEXT
  8
0
 10
36.407119
 20
58.415375
 30
0.0
 40
0.3
  1
P = 72.9 dm
  7
ROMANC
  0
TEXT
  8
0
 10
36.409947
 20
59.088873
 30
0.0
 40
0.3
  1
S = 316  dm
  7
ROMANC
  0
TEXT
  8
0
 10
36.372409
 20
59.659383
 30
0.0
 40
0.3
  1
ESCALA  1:50
  7
ROMANC
  0
TEXT
  8
0
 10
36.372409
 20
60.145097
 30
0.0
 40
0.3
  1
TIPUS   NT316
  7
ROMANC
  0
LINE
  8
0
 10
39.654377
 20
52.985022
 30
0.0
 11
39.654377
 21
54.93566
 31
0.0
  0
TEXT
  8
0
 10
39.381478
 20
53.997113
 30
0.0
 40
0.1
  1
1.7
  7
ROMANC
  0
LINE
  8
0
 10
39.708675
 20
53.320931
 30
0.0
 11
39.600078
 21
53.150389
 31
0.0
  0
LINE
  8
0
 10
39.046166
 20
53.23566
 30
0.0
 11
39.046166
 21
52.099974
 31
0.0
  0
LINE
  8
0
 10
39.100464
 20
52.785105
 30
0.0
 11
38.991867
 21
52.614563
 31
0.0
  0
TEXT
  8
0
 10
38.076713
 20
51.877197
 30
0.0
 40
0.1
  1
1.8
  7
ROMANC
  0
LINE
  8
0
 10
37.896166
 20
53.23566
 30
0.0
 11
37.896166
 21
53.425926
 31
0.0
  0
LINE
  8
0
 10
38.396166
 20
53.23566
 30
0.0
 11
38.396166
 21
53.425926
 31
0.0
  0
LINE
  8
0
 10
37.896166
 20
53.425926
 30
0.0
 11
38.396166
 21
53.425926
 31
0.0
  0
LINE
  8
0
 10
37.950464
 20
53.511197
 30
0.0
 11
37.841867
 21
53.340655
 31
0.0
  0
LINE
  8
0
 10
38.450464
 20
53.511197
 30
0.0
 11
38.341867
 21
53.340655
 31
0.0
  0
LINE
  8
0
 10
37.246166
 20
53.23566
 30
0.0
 11
37.246166
 21
52.099974
 31
0.0
  0
LINE
  8
0
 10
37.300464
 20
52.785105
 30
0.0
 11
37.191867
 21
52.614563
 31
0.0
  0
LINE
  8
0
 10
39.046166
 20
52.699834
 30
0.0
 11
38.396166
 21
52.699834
 31
0.0
  0
TEXT
  8
0
 10
38.054695
 20
53.525084
 30
0.0
 40
0.1
  1
0.5
  7
ROMANC
  0
LINE
  8
0
 10
39.046166
 20
53.23566
 30
0.0
 11
39.654377
 21
53.23566
 31
0.0
  0
TEXT
  8
0
 10
39.917778
 20
59.394789
 30
0.0
 40
0.1
  1
2
  7
ROMANC
  0
LINE
  8
0
 10
39.708675
 20
55.020931
 30
0.0
 11
39.600078
 21
54.850389
 31
0.0
  0
LINE
  8
0
 10
39.046166
 20
54.93566
 30
0.0
 11
40.153293
 21
54.93566
 31
0.0
  0
LINE
  8
0
 10
37.246166
 20
52.099974
 30
0.0
 11
39.046166
 21
52.099974
 31
0.0
  0
LINE
  8
0
 10
37.896166
 20
53.23566
 30
0.0
 11
37.896166
 21
52.699834
 31
0.0
  0
LINE
  8
0
 10
38.396166
 20
53.23566
 30
0.0
 11
38.396166
 21
52.699834
 31
0.0
  0
LINE
  8
0
 10
37.896166
 20
52.699834
 30
0.0
 11
37.246166
 21
52.699834
 31
0.0
  0
TEXT
  8
0
 10
37.419156
 20
52.491768
 30
0.0
 40
0.1
  1
0.65
  7
ROMANC
  0
TEXT
  8
0
 10
38.569881
 20
52.479599
 30
0.0
 40
0.1
  1
0.65
  7
ROMANC
  0
LINE
  8
0
 10
38.450464
 20
52.785105
 30
0.0
 11
38.341867
 21
52.614563
 31
0.0
  0
LINE
  8
0
 10
37.950464
 20
52.785105
 30
0.0
 11
37.841867
 21
52.614563
 31
0.0
  0
LINE
  8
0
 10
39.100464
 20
52.185245
 30
0.0
 11
38.991867
 21
52.014702
 31
0.0
  0
LINE
  8
0
 10
37.300464
 20
52.185245
 30
0.0
 11
37.191867
 21
52.014702
 31
0.0
  0
LINE
  8
0
 10
40.153293
 20
52.985022
 30
0.0
 11
40.153293
 21
54.93566
 31
0.0
  0
LINE
  8
0
 10
40.207592
 20
53.070293
 30
0.0
 11
40.098994
 21
52.899751
 31
0.0
  0
TEXT
  8
0
 10
39.801968
 20
53.854605
 30
0.0
 40
0.1
  1
1.95
  7
ROMANC
  0
LINE
  8
0
 10
40.207592
 20
55.020931
 30
0.0
 11
40.098994
 21
54.850389
 31
0.0
  0
LINE
  8
0
 10
38.15228
 20
52.985022
 30
0.0
 11
40.153293
 21
52.985022
 31
0.0
  0
LINE
  8
0
 10
39.708675
 20
53.070293
 30
0.0
 11
39.600078
 21
52.899751
 31
0.0
  0
TEXT
  8
0
 10
39.313747
 20
53.031622
 30
0.0
 40
0.1
  1
0.25
  7
ROMANC
  0
LINE
  8
0
 10
37.246166
 20
54.93566
 30
0.0
 11
37.246166
 21
53.23566
 31
0.0
  0
LINE
  8
0
 10
37.246166
 20
53.23566
 30
0.0
 11
37.896166
 21
53.23566
 31
0.0
  0
ARC
  8
0
 10
38.146166
 20
53.23566
 30
0.0
 40
0.25
 50
180.0
 51
0.0
  0
LINE
  8
0
 10
38.396166
 20
53.23566
 30
0.0
 11
39.046166
 21
53.23566
 31
0.0
  0
LINE
  8
0
 10
39.046166
 20
53.23566
 30
0.0
 11
39.046166
 21
54.93566
 31
0.0
  0
LINE
  8
0
 10
39.046166
 20
54.93566
 30
0.0
 11
37.246166
 21
54.93566
 31
0.0
  0
LINE
  8
0
 10
37.236166
 20
54.94566
 30
0.0
 11
37.236166
 21
53.22566
 31
0.0
  0
LINE
  8
0
 10
37.236166
 20
53.22566
 30
0.0
 11
37.886358
 21
53.22566
 31
0.0
  0
ARC
  8
0
 10
38.146166
 20
53.23566
 30
0.0
 40
0.26
 50
182.204228
 51
357.795772
  0
LINE
  8
0
 10
38.405973
 20
53.22566
 30
0.0
 11
39.056166
 21
53.22566
 31
0.0
  0
LINE
  8
0
 10
39.056166
 20
53.22566
 30
0.0
 11
39.056166
 21
54.94566
 31
0.0
  0
LINE
  8
0
 10
39.056166
 20
54.94566
 30
0.0
 11
37.236166
 21
54.94566
 31
0.0
  0
LINE
  8
0
 10
37.256166
 20
54.92566
 30
0.0
 11
37.256166
 21
53.24566
 31
0.0
  0
LINE
  8
0
 10
37.256166
 20
53.24566
 30
0.0
 11
37.906374
 21
53.24566
 31
0.0
  0
ARC
  8
0
 10
38.146166
 20
53.23566
 30
0.0
 40
0.24
 50
177.611985
 51
2.388015
  0
LINE
  8
0
 10
38.385957
 20
53.24566
 30
0.0
 11
39.036166
 21
53.24566
 31
0.0
  0
LINE
  8
0
 10
39.036166
 20
53.24566
 30
0.0
 11
39.036166
 21
54.92566
 31
0.0
  0
LINE
  8
0
 10
39.036166
 20
54.92566
 30
0.0
 11
37.256166
 21
54.92566
 31
0.0
  0
ENDSEC
  0
EOF
