  0
SECTION
  2
HEADER
  9
$ACADVER
  1
AC1009
  9
$INSBASE
 10
0.0
 20
0.0
 30
0.0
  9
$EXTMIN
 10
281.396000
 20
29.897000
 30
-2147483.648000
  9
$EXTMAX
 10
291.896000
 20
44.747000
 30
0.000000
  9
$LIMMIN
 10
280.396000
 20
28.897000
  9
$LIMMAX
 10
292.896000
 20
43.747000
  9
$ORTHOMODE
 70
     0
  9
$REGENMODE
 70
     1
  9
$FILLMODE
 70
     1
  9
$QTEXTMODE
 70
     0
  9
$MIRRTEXT
 70
     1
  9
$DRAGMODE
 70
     2
  9
$LTSCALE
 40
1.0
  9
$OSMODE
 70
     0
  9
$ATTMODE
 70
     1
  9
$TEXTSIZE
 40
0.2
  9
$TRACEWID
 40
0.05
  9
$TEXTSTYLE
  7
STANDARD
  9
$CLAYER
  8
0
  9
$CELTYPE
  6
BYLAYER
  9
$CECOLOR
 62
   256
  9
$DIMSCALE
 40
1.0
  9
$DIMASZ
 40
0.18
  9
$DIMEXO
 40
0.0625
  9
$DIMDLI
 40
0.38
  9
$DIMRND
 40
0.0
  9
$DIMDLE
 40
0.0
  9
$DIMEXE
 40
0.18
  9
$DIMTP
 40
0.0
  9
$DIMTM
 40
0.0
  9
$DIMTXT
 40
0.18
  9
$DIMCEN
 40
0.09
  9
$DIMTSZ
 40
0.0
  9
$DIMTOL
 70
     0
  9
$DIMLIM
 70
     0
  9
$DIMTIH
 70
     1
  9
$DIMTOH
 70
     1
  9
$DIMSE1
 70
     0
  9
$DIMSE2
 70
     0
  9
$DIMTAD
 70
     0
  9
$DIMZIN
 70
     0
  9
$DIMBLK
  1

  9
$DIMASO
 70
     1
  9
$DIMSHO
 70
     1
  9
$DIMPOST
  1

  9
$DIMAPOST
  1

  9
$DIMALT
 70
     0
  9
$DIMALTD
 70
     2
  9
$DIMALTF
 40
25.4
  9
$DIMLFAC
 40
1.0
  9
$DIMTOFL
 70
     0
  9
$DIMTVP
 40
0.0
  9
$DIMTIX
 70
     0
  9
$DIMSOXD
 70
     0
  9
$DIMSAH
 70
     0
  9
$DIMBLK1
  1

  9
$DIMBLK2
  1

  9
$DIMSTYLE
  2
*UNNAMED
  9
$DIMCLRD
 70
     0
  9
$DIMCLRE
 70
     0
  9
$DIMCLRT
 70
     0
  9
$DIMTFAC
 40
1.0
  9
$DIMGAP
 40
0.09
  9
$LUNITS
 70
     2
  9
$LUPREC
 70
     4
  9
$AXISMODE
 70
     0
  9
$AXISUNIT
 10
0.0
 20
0.0
  9
$SKETCHINC
 40
0.1
  9
$FILLETRAD
 40
0.0
  9
$AUNITS
 70
     0
  9
$AUPREC
 70
     0
  9
$MENU
  1
acad
  9
$ELEVATION
 40
0.0
  9
$PELEVATION
 40
0.0
  9
$THICKNESS
 40
0.0
  9
$LIMCHECK
 70
     0
  9
$BLIPMODE
 70
     1
  9
$CHAMFERA
 40
0.0
  9
$CHAMFERB
 40
0.0
  9
$SKPOLY
 70
     0
  9
$TDCREATE
 40
2448315.373408102
  9
$TDUPDATE
 40
2448315.373408102
  9
$TDINDWG
 40
0.0000000000
  9
$TDUSRTIMER
 40
0.0000000000
  9
$USRTIMER
 70
     1
  9
$ANGBASE
 50
0.0
  9
$ANGDIR
 70
     0
  9
$PDMODE
 70
     0
  9
$PDSIZE
 40
0.0
  9
$PLINEWID
 40
0.0
  9
$COORDS
 70
     0
  9
$SPLFRAME
 70
     0
  9
$SPLINETYPE
 70
     6
  9
$SPLINESEGS
 70
     8
  9
$ATTDIA
 70
     0
  9
$ATTREQ
 70
     1
  9
$HANDLING
 70
     0
  9
$HANDSEED
  5
0
  9
$SURFTAB1
 70
     6
  9
$SURFTAB2
 70
     6
  9
$SURFTYPE
 70
     6
  9
$SURFU
 70
     6
  9
$SURFV
 70
     6
  9
$UCSNAME
  2

  9
$UCSORG
 10
0.0
 20
0.0
 30
0.0
  9
$UCSXDIR
 10
1.0
 20
0.0
 30
0.0
  9
$UCSYDIR
 10
0.0
 20
1.0
 30
0.0
  9
$PUCSNAME
  2

  9
$PUCSORG
 10
0.0
 20
0.0
 30
0.0
  9
$PUCSXDIR
 10
1.0
 20
0.0
 30
0.0
  9
$PUCSYDIR
 10
0.0
 20
1.0
 30
0.0
  9
$USERI1
 70
     0
  9
$USERI2
 70
     0
  9
$USERI3
 70
     0
  9
$USERI4
 70
     0
  9
$USERI5
 70
     0
  9
$USERR1
 40
0.0
  9
$USERR2
 40
0.0
  9
$USERR3
 40
0.0
  9
$USERR4
 40
0.0
  9
$USERR5
 40
0.0
  9
$WORLDVIEW
 70
     1
  9
$SHADEDGE
 70
     3
  9
$SHADEDIF
 70
    70
  9
$TILEMODE
 70
     1
  9
$MAXACTVP
 70
    16
  9
$PINSBASE
 10
0.0
 20
0.0
 30
0.0
  9
$PLIMCHECK
 70
     0
  9
$PEXTMIN
 10
1.000000E+20
 20
1.000000E+20
 30
1.000000E+20
  9
$PEXTMAX
 10
-1.000000E+20
 20
-1.000000E+20
 30
-1.000000E+20
  9
$PLIMMIN
 10
0.0
 20
0.0
  9
$PLIMMAX
 10
12.0
 20
9.0
  9
$UNITMODE
 70
     0
  9
$VISRETAIN
 70
     0
  0
ENDSEC
  0
SECTION
  2
TABLES
  0
TABLE
  2
LTYPE
 70
    1
  0
LTYPE
  2
CONTINUOUS
 70
    64
3
Solid line
 72
    65
 73
0
 40
0.000000
  0
ENDTAB
  0
TABLE
  2
LAYER
 70
    8
  0
LAYER
  2
0
 70
    64
 62
7
  6
CONTINUOUS
  0
LAYER
  2
1
 70
    64
 62
7
  6
CONTINUOUS
  0
LAYER
  2
7
 70
    64
 62
7
  6
CONTINUOUS
  0
LAYER
  2
8
 70
    64
 62
7
  6
CONTINUOUS
  0
LAYER
  2
9
 70
    64
 62
7
  6
CONTINUOUS
  0
LAYER
  2
22
 70
    64
 62
7
  6
CONTINUOUS
  0
LAYER
  2
25
 70
    64
 62
7
  6
CONTINUOUS
  0
LAYER
  2
0
 70
    64
 62
7
  6
CONTINUOUS
  0
ENDTAB
  0
TABLE
  2
STYLE
 70
    1
  0
STYLE
  2
ROMANC
70
     0
 40
0.0
 41
1.0
 50
0.0
 71
     0
 42
0.2
  3
ROMANC
  4

  0
ENDTAB
  0
ENDSEC
  0
SECTION
  2
BLOCKS
  0
ENDSEC
  0
SECTION
  2
ENTITIES
  0
TEXT
  8
0
  6
CONTINUOUS
 40
0.100000
 10
286.909000
 20
41.324000
  1
2
  7
ROMANC
  0
TEXT
  8
0
  6
CONTINUOUS
 40
0.300000
 10
283.926000
 20
41.768000
  1
ESCALA  1:50
  7
ROMANC
  0
POLYLINE
  8
0
  6
CONTINUOUS
 66
     1
 70
     1
  0
VERTEX
  8
0
  6
CONTINUOUS
 10
281.396000
 20
44.747000
  0
VERTEX
  8
0
  6
CONTINUOUS
 10
291.896000
 20
44.747000
  0
VERTEX
  8
0
  6
CONTINUOUS
 10
291.896000
 20
29.897000
  0
VERTEX
  8
0
  6
CONTINUOUS
 10
281.396000
 20
29.897000
  0
SEQEND
  8
0
  0
LINE
  8
1
  6
CONTINUOUS
 10
287.243000
 20
33.651000
 11
287.243000
 21
32.501000
  0
ARC
  8
1
  6
CONTINUOUS
 10
286.843000
 20
32.401000
 40
0.400000
 50
180.000000
 51
360.000000
  0
TEXT
  8
0
  6
CONTINUOUS
 40
0.300000
 10
283.922000
 20
40.529000
  1
P = 70 dm
  7
ROMANC
  0
TEXT
  8
0
  6
CONTINUOUS
 40
0.300000
 10
283.945000
 20
41.099000
  1
S = 309 dm
  7
ROMANC
  0
LINE
  8
1
  6
CONTINUOUS
 10
286.443000
 20
32.501000
 11
285.743000
 21
32.501000
  0
LINE
  8
1
  6
CONTINUOUS
 10
286.443000
 20
32.401000
 11
286.443000
 21
32.501000
  0
LINE
  8
1
  6
CONTINUOUS
 10
287.243000
 20
32.501000
 11
287.243000
 21
32.401000
  0
TEXT
  8
1
  6
CONTINUOUS
 40
0.075000
 10
285.974000
 20
31.740000
  1
0.70
  7
ROMANC
  0
LINE
  8
1
  6
CONTINUOUS
 10
285.936000
 20
31.777000
 11
285.743000
 21
31.777000
  0
LINE
  8
1
  6
CONTINUOUS
 10
286.248000
 20
31.777000
 11
286.443000
 21
31.777000
  0
LINE
  8
1
  6
CONTINUOUS
 10
285.706000
 20
31.758000
 11
285.780000
 21
31.796000
  0
LINE
  8
1
  6
CONTINUOUS
 10
286.480000
 20
31.796000
 11
286.406000
 21
31.758000
  0
LINE
  8
1
  6
CONTINUOUS
 10
285.743000
 20
32.463000
 11
285.743000
 21
31.739000
  0
LINE
  8
1
  6
CONTINUOUS
 10
286.443000
 20
32.463000
 11
286.443000
 21
31.739000
  0
TEXT
  8
1
  6
CONTINUOUS
 40
0.075000
 10
286.724000
 20
31.740000
  1
0.80
  7
ROMANC
  0
LINE
  8
1
  6
CONTINUOUS
 10
286.686000
 20
31.777000
 11
286.443000
 21
31.777000
  0
LINE
  8
1
  6
CONTINUOUS
 10
286.998000
 20
31.777000
 11
287.243000
 21
31.777000
  0
LINE
  8
1
  6
CONTINUOUS
 10
286.406000
 20
31.758000
 11
286.480000
 21
31.796000
  0
LINE
  8
1
  6
CONTINUOUS
 10
287.280000
 20
31.796000
 11
287.206000
 21
31.758000
  0
LINE
  8
1
  6
CONTINUOUS
 10
287.243000
 20
32.363000
 11
287.243000
 21
31.739000
  0
TEXT
  8
1
  6
CONTINUOUS
 40
0.075000
 10
285.558000
 20
32.132000
  1
0.50
 50
90.000000
  7
ROMANC
  0
LINE
  8
1
  6
CONTINUOUS
 10
285.521000
 20
31.851000
 11
285.521000
 21
32.001000
  0
LINE
  8
1
  6
CONTINUOUS
 10
285.521000
 20
32.651000
 11
285.521000
 21
32.501000
  0
LINE
  8
1
  6
CONTINUOUS
 10
285.502000
 20
32.038000
 11
285.540000
 21
31.964000
  0
LINE
  8
1
  6
CONTINUOUS
 10
285.540000
 20
32.464000
 11
285.502000
 21
32.538000
  0
LINE
  8
1
  6
CONTINUOUS
 10
286.805000
 20
32.001000
 11
285.483000
 21
32.001000
  0
LINE
  8
1
  6
CONTINUOUS
 10
286.405000
 20
32.501000
 11
285.483000
 21
32.501000
  0
LINE
  8
1
  6
CONTINUOUS
 10
285.743000
 20
32.501000
 11
285.743000
 21
33.651000
  0
TEXT
  8
1
  6
CONTINUOUS
 40
0.075000
 10
285.558000
 20
32.975000
  1
1.15
 50
90.000000
  7
ROMANC
  0
LINE
  8
1
  6
CONTINUOUS
 10
285.521000
 20
32.937000
 11
285.521000
 21
32.501000
  0
LINE
  8
1
  6
CONTINUOUS
 10
285.521000
 20
33.214000
 11
285.521000
 21
33.651000
  0
LINE
  8
1
  6
CONTINUOUS
 10
285.540000
 20
32.464000
 11
285.502000
 21
32.538000
  0
LINE
  8
1
  6
CONTINUOUS
 10
285.502000
 20
33.688000
 11
285.540000
 21
33.614000
  0
LINE
  8
1
  6
CONTINUOUS
 10
285.705000
 20
32.501000
 11
285.483000
 21
32.501000
  0
LINE
  8
1
  6
CONTINUOUS
 10
285.705000
 20
33.651000
 11
285.483000
 21
33.651000
  0
TEXT
  8
1
  6
CONTINUOUS
 40
0.075000
 10
287.490000
 20
33.132000
  1
2.50
 50
90.000000
  7
ROMANC
  0
LINE
  8
1
  6
CONTINUOUS
 10
287.452000
 20
33.094000
 11
287.452000
 21
32.001000
  0
LINE
  8
1
  6
CONTINUOUS
 10
287.452000
 20
33.406000
 11
287.452000
 21
34.501000
  0
LINE
  8
1
  6
CONTINUOUS
 10
287.471000
 20
31.964000
 11
287.433000
 21
32.038000
  0
LINE
  8
1
  6
CONTINUOUS
 10
287.433000
 20
34.538000
 11
287.471000
 21
34.464000
  0
LINE
  8
1
  6
CONTINUOUS
 10
286.881000
 20
32.001000
 11
287.490000
 21
32.001000
  0
LINE
  8
1
  6
CONTINUOUS
 10
286.531000
 20
34.501000
 11
287.490000
 21
34.501000
  0
ARC
  8
1
  6
CONTINUOUS
 10
286.493000
 20
33.745118
 40
0.755882
 50
-7.152667
 51
187.152669
  0
TEXT
  8
1
  6
CONTINUOUS
 40
0.075000
 10
286.383000
 20
34.596000
  1
1.50
  7
ROMANC
  0
LINE
  8
1
  6
CONTINUOUS
 10
286.345000
 20
34.633000
 11
285.743000
 21
34.633000
  0
LINE
  8
1
  6
CONTINUOUS
 10
286.640000
 20
34.633000
 11
287.243000
 21
34.633000
  0
LINE
  8
1
  6
CONTINUOUS
 10
285.706000
 20
34.614000
 11
285.780000
 21
34.652000
  0
LINE
  8
1
  6
CONTINUOUS
 10
287.280000
 20
34.652000
 11
287.206000
 21
34.614000
  0
LINE
  8
1
  6
CONTINUOUS
 10
285.743000
 20
33.689000
 11
285.743000
 21
34.671000
  0
LINE
  8
1
  6
CONTINUOUS
 10
287.243000
 20
33.689000
 11
287.243000
 21
34.671000
  0
LINE
  8
1
  6
CONTINUOUS
 10
287.253000
 20
33.651000
 11
287.253000
 21
32.501000
  0
LINE
  8
1
  6
CONTINUOUS
 10
287.263000
 20
33.651000
 11
287.263000
 21
32.501000
  0
LINE
  8
1
  6
CONTINUOUS
 10
287.253000
 20
32.501000
 11
287.253000
 21
32.401000
  0
LINE
  8
1
  6
CONTINUOUS
 10
287.263000
 20
32.501000
 11
287.263000
 21
32.401000
  0
ARC
  8
1
  6
CONTINUOUS
 10
286.843000
 20
32.401000
 40
0.410000
 50
180.000000
 51
360.000000
  0
ARC
  8
1
  6
CONTINUOUS
 10
286.843000
 20
32.401000
 40
0.420000
 50
180.000000
 51
360.000000
  0
LINE
  8
1
  6
CONTINUOUS
 10
286.433000
 20
32.491000
 11
285.733000
 21
32.491000
  0
LINE
  8
1
  6
CONTINUOUS
 10
286.423000
 20
32.481000
 11
285.723000
 21
32.481000
  0
LINE
  8
1
  6
CONTINUOUS
 10
286.433000
 20
32.401000
 11
286.433000
 21
32.491000
  0
LINE
  8
1
  6
CONTINUOUS
 10
286.423000
 20
32.401000
 11
286.423000
 21
32.481000
  0
LINE
  8
1
  6
CONTINUOUS
 10
285.733000
 20
32.491000
 11
285.733000
 21
33.651000
  0
LINE
  8
1
  6
CONTINUOUS
 10
285.723000
 20
32.481000
 11
285.723000
 21
33.651000
  0
ARC
  8
1
  6
CONTINUOUS
 10
286.493000
 20
33.745118
 40
0.765882
 50
-7.152667
 51
187.152669
  0
ARC
  8
1
  6
CONTINUOUS
 10
286.493000
 20
33.745118
 40
0.775882
 50
-7.152667
 51
187.152669
  0
TEXT
  8
0
  6
CONTINUOUS
 40
0.300000
 10
283.926000
 20
42.381000
  1
TIPUS   NT309
  7
ROMANC
  0
ENDSEC
  0
EOF
