  0
SECTION
  2
HEADER
  9
$ACADVER
  1
AC1014
  9
$ACADMAINTVER
 70
     9
  9
$DWGCODEPAGE
  3
ANSI_1252
  9
$INSBASE
 10
0.0
 20
0.0
 30
0.0
  9
$EXTMIN
 10
-9.975000000000001
 20
-0.7425000000000006
 30
107374.1823999999
  9
$EXTMAX
 10
0.5249999999999995
 20
14.1075
 30
107374.1824
  9
$LIMMIN
 10
0.0
 20
0.0
  9
$LIMMAX
 10
12.0
 20
9.0
  9
$ORTHOMODE
 70
     0
  9
$REGENMODE
 70
     1
  9
$FILLMODE
 70
     1
  9
$QTEXTMODE
 70
     0
  9
$MIRRTEXT
 70
     1
  9
$DRAGMODE
 70
     2
  9
$LTSCALE
 40
1.0
  9
$OSMODE
 70
   295
  9
$ATTMODE
 70
     1
  9
$TEXTSIZE
 40
0.0
  9
$TRACEWID
 40
0.05
  9
$TEXTSTYLE
  7
STANDARD
  9
$CLAYER
  8
0
  9
$CELTYPE
  6
CONTINUOUS
  9
$CECOLOR
 62
   256
  9
$CELTSCALE
 40
1.0
  9
$DELOBJ
 70
     1
  9
$DISPSILH
 70
     0
  9
$DIMSCALE
 40
1.0
  9
$DIMASZ
 40
0.18
  9
$DIMEXO
 40
0.0625
  9
$DIMDLI
 40
0.38
  9
$DIMRND
 40
0.0
  9
$DIMDLE
 40
0.0
  9
$DIMEXE
 40
0.18
  9
$DIMTP
 40
0.0
  9
$DIMTM
 40
0.0
  9
$DIMTXT
 40
0.18
  9
$DIMCEN
 40
0.09
  9
$DIMTSZ
 40
0.0
  9
$DIMTOL
 70
     0
  9
$DIMLIM
 70
     0
  9
$DIMTIH
 70
     1
  9
$DIMTOH
 70
     1
  9
$DIMSE1
 70
     0
  9
$DIMSE2
 70
     0
  9
$DIMTAD
 70
     0
  9
$DIMZIN
 70
     0
  9
$DIMBLK
  1

  9
$DIMASO
 70
     1
  9
$DIMSHO
 70
     1
  9
$DIMPOST
  1

  9
$DIMAPOST
  1

  9
$DIMALT
 70
     0
  9
$DIMALTD
 70
     2
  9
$DIMALTF
 40
25.4
  9
$DIMLFAC
 40
1.0
  9
$DIMTOFL
 70
     0
  9
$DIMTVP
 40
0.0
  9
$DIMTIX
 70
     0
  9
$DIMSOXD
 70
     0
  9
$DIMSAH
 70
     0
  9
$DIMBLK1
  1

  9
$DIMBLK2
  1

  9
$DIMSTYLE
  2
STANDARD
  9
$DIMCLRD
 70
     0
  9
$DIMCLRE
 70
     0
  9
$DIMCLRT
 70
     0
  9
$DIMTFAC
 40
1.0
  9
$DIMGAP
 40
0.09
  9
$DIMJUST
 70
     0
  9
$DIMSD1
 70
     0
  9
$DIMSD2
 70
     0
  9
$DIMTOLJ
 70
     1
  9
$DIMTZIN
 70
     0
  9
$DIMALTZ
 70
     0
  9
$DIMALTTZ
 70
     0
  9
$DIMFIT
 70
     5
  9
$DIMUPT
 70
     0
  9
$DIMUNIT
 70
     2
  9
$DIMDEC
 70
     4
  9
$DIMTDEC
 70
     4
  9
$DIMALTU
 70
     2
  9
$DIMALTTD
 70
     2
  9
$DIMTXSTY
  7
STANDARD
  9
$DIMAUNIT
 70
     0
  9
$LUNITS
 70
     2
  9
$LUPREC
 70
     4
  9
$SKETCHINC
 40
0.1
  9
$FILLETRAD
 40
0.0
  9
$AUNITS
 70
     0
  9
$AUPREC
 70
     0
  9
$MENU
  1
acad
  9
$ELEVATION
 40
0.0
  9
$PELEVATION
 40
0.0
  9
$THICKNESS
 40
0.0
  9
$LIMCHECK
 70
     0
  9
$BLIPMODE
 70
     0
  9
$CHAMFERA
 40
0.0
  9
$CHAMFERB
 40
0.0
  9
$CHAMFERC
 40
0.0
  9
$CHAMFERD
 40
0.0
  9
$SKPOLY
 70
     0
  9
$TDCREATE
 40
2452332.554340277
  9
$TDUPDATE
 40
2452332.558441284
  9
$TDINDWG
 40
0.0018560880
  9
$TDUSRTIMER
 40
0.0018560880
  9
$USRTIMER
 70
     1
  9
$ANGBASE
 50
0.0
  9
$ANGDIR
 70
     0
  9
$PDMODE
 70
     0
  9
$PDSIZE
 40
0.0
  9
$PLINEWID
 40
0.0
  9
$COORDS
 70
     1
  9
$SPLFRAME
 70
     0
  9
$SPLINETYPE
 70
     6
  9
$SPLINESEGS
 70
    10
  9
$ATTDIA
 70
     0
  9
$ATTREQ
 70
     1
  9
$HANDLING
 70
  4097
  9
$HANDSEED
  5
17D
  9
$SURFTAB1
 70
     6
  9
$SURFTAB2
 70
     6
  9
$SURFTYPE
 70
     6
  9
$SURFU
 70
     6
  9
$SURFV
 70
     6
  9
$UCSNAME
  2

  9
$UCSORG
 10
0.0
 20
0.0
 30
0.0
  9
$UCSXDIR
 10
1.0
 20
0.0
 30
0.0
  9
$UCSYDIR
 10
0.0
 20
1.0
 30
0.0
  9
$PUCSNAME
  2

  9
$PUCSORG
 10
0.0
 20
0.0
 30
0.0
  9
$PUCSXDIR
 10
1.0
 20
0.0
 30
0.0
  9
$PUCSYDIR
 10
0.0
 20
1.0
 30
0.0
  9
$USERI1
 70
     0
  9
$USERI2
 70
     0
  9
$USERI3
 70
     0
  9
$USERI4
 70
     0
  9
$USERI5
 70
     0
  9
$USERR1
 40
0.0
  9
$USERR2
 40
0.0
  9
$USERR3
 40
0.0
  9
$USERR4
 40
0.0
  9
$USERR5
 40
0.0
  9
$WORLDVIEW
 70
     1
  9
$SHADEDGE
 70
     3
  9
$SHADEDIF
 70
    70
  9
$TILEMODE
 70
     1
  9
$MAXACTVP
 70
    16
  9
$PINSBASE
 10
0.0
 20
0.0
 30
0.0
  9
$PLIMCHECK
 70
     0
  9
$PEXTMIN
 10
-1.000000000000000E+20
 20
-1.000000000000000E+20
 30
-1.000000000000000E+20
  9
$PEXTMAX
 10
-1.000000000000000E+20
 20
-1.000000000000000E+20
 30
-1.000000000000000E+20
  9
$PLIMMIN
 10
0.0
 20
0.0
  9
$PLIMMAX
 10
12.0
 20
9.0
  9
$UNITMODE
 70
     0
  9
$VISRETAIN
 70
     0
  9
$PLINEGEN
 70
     1
  9
$PSLTSCALE
 70
     0
  9
$TREEDEPTH
 70
  3020
  9
$PICKSTYLE
 70
     1
  9
$CMLSTYLE
  2
STANDARD
  9
$CMLJUST
 70
     0
  9
$CMLSCALE
 40
1.0
  9
$PROXYGRAPHICS
 70
     1
  9
$MEASUREMENT
 70
     0
  0
ENDSEC
  0
SECTION
  2
CLASSES
  0
CLASS
  1
ACDBDICTIONARYWDFLT
  2
AcDbDictionaryWithDefault
  3
AutoCAD 2000
 90
        0
280
     0
281
     0
  0
CLASS
  1
ACDBPLACEHOLDER
  2
AcDbPlaceHolder
  3
AutoCAD 2000
 90
        0
280
     0
281
     0
  0
CLASS
  1
LAYOUT
  2
AcDbLayout
  3
AutoCAD 2000
 90
        0
280
     0
281
     0
  0
CLASS
  1
LONG_TRANSACTION
  2
AcDbLongTransaction
  3
AutoCAD 2000
 90
        0
280
     0
281
     0
  0
CLASS
  1
LWPOLYLINE
  2
AcDbPolyline
  3
AutoCAD 2000
 90
        0
280
     0
281
     1
  0
CLASS
  1
HATCH
  2
AcDbHatch
  3
AutoCAD 2000
 90
        0
280
     0
281
     1
  0
CLASS
  1
XRECORD
  2
AcDbXrecord
  3
AutoCAD 2000
 90
        0
280
     0
281
     0
  0
ENDSEC
  0
SECTION
  2
TABLES
  0
TABLE
  2
VPORT
  5
FF
330
0
100
AcDbSymbolTable
 70
     3
  0
VPORT
  5
157
330
FF
100
AcDbSymbolTableRecord
100
AcDbViewportTableRecord
  2
*ACTIVE
 70
     0
 10
0.0
 20
0.0
 11
1.0
 21
1.0
 12
-4.60897667386609
 22
6.494399999999998
 13
0.0
 23
0.0
 14
0.0
 24
0.0
 15
0.0
 25
0.0
 16
0.0
 26
0.0
 36
1.0
 17
-0.1160233261339094
 27
0.1881000000000002
 37
107374.1824
 40
14.96221662468514
 41
1.519546027742749
 42
50.0
 43
2.670999999997905
 44
-2.671000000002095
 50
0.0
 51
0.0
 71
    22
 72
   100
 73
     1
 74
     0
 75
     0
 76
     0
 77
     0
 78
     0
  0
ENDTAB
  0
TABLE
  2
LTYPE
  5
FC
330
0
100
AcDbSymbolTable
 70
     7
  0
LTYPE
  5
10A
330
FC
100
AcDbSymbolTableRecord
100
AcDbLinetypeTableRecord
  2
BYBLOCK
 70
     0
  3

 72
    65
 73
     0
 40
0.0
  0
LTYPE
  5
10B
330
FC
100
AcDbSymbolTableRecord
100
AcDbLinetypeTableRecord
  2
BYLAYER
 70
     0
  3

 72
    65
 73
     0
 40
0.0
  0
LTYPE
  5
10C
330
FC
100
AcDbSymbolTableRecord
100
AcDbLinetypeTableRecord
  2
CONTINUOUS
 70
     0
  3
Solid line
 72
    65
 73
     0
 40
0.0
  0
LTYPE
  5
11A
330
FC
100
AcDbSymbolTableRecord
100
AcDbLinetypeTableRecord
  2
DOT
 70
     0
  3
. . . . . . . . . . . . . . . . . . . . . . . .
 72
    65
 73
     2
 40
0.25
 49
0.0
 74
     0
 49
-0.25
 74
     0
  0
LTYPE
  5
11B
330
FC
100
AcDbSymbolTableRecord
100
AcDbLinetypeTableRecord
  2
HIDDEN
 70
     0
  3
__ __ __ __ __ __ __ __ __ __ __ __ __ __ __ __
 72
    65
 73
     2
 40
0.375
 49
0.25
 74
     0
 49
-0.125
 74
     0
  0
LTYPE
  5
11C
330
FC
100
AcDbSymbolTableRecord
100
AcDbLinetypeTableRecord
  2
DASHED
 70
     0
  3
__ __ __ __ __ __ __ __ __ __ __ __ __ __ __ __
 72
    65
 73
     2
 40
0.75
 49
0.5
 74
     0
 49
-0.25
 74
     0
  0
LTYPE
  5
11D
330
FC
100
AcDbSymbolTableRecord
100
AcDbLinetypeTableRecord
  2
DASHDOT
 70
     0
  3
__ . __ . __ . __ . __ . __ . __ . __ . __ . __
 72
    65
 73
     4
 40
1.0
 49
0.5
 74
     0
 49
-0.25
 74
     0
 49
0.0
 74
     0
 49
-0.25
 74
     0
  0
LTYPE
  5
11E
330
FC
100
AcDbSymbolTableRecord
100
AcDbLinetypeTableRecord
  2
DIVIDE
 70
     0
  3
____ . . ____ . . ____ . . ____ . . ____ . . __
 72
    65
 73
     6
 40
1.25
 49
0.5
 74
     0
 49
-0.25
 74
     0
 49
0.0
 74
     0
 49
-0.25
 74
     0
 49
0.0
 74
     0
 49
-0.25
 74
     0
  0
LTYPE
  5
11F
330
FC
100
AcDbSymbolTableRecord
100
AcDbLinetypeTableRecord
  2
CENTER
 70
     0
  3
____ _ ____ _ ____ _ ____ _ ____ _ ____ _ ____ 
 72
    65
 73
     4
 40
2.0
 49
1.25
 74
     0
 49
-0.25
 74
     0
 49
0.25
 74
     0
 49
-0.25
 74
     0
  0
ENDTAB
  0
TABLE
  2
LAYER
  5
F9
330
0
100
AcDbSymbolTable
 70
     4
  0
LAYER
  5
107
330
F9
100
AcDbSymbolTableRecord
100
AcDbLayerTableRecord
  2
0
 70
     0
 62
     7
  6
CONTINUOUS
  0
LAYER
  5
122
330
F9
100
AcDbSymbolTableRecord
100
AcDbLayerTableRecord
  2
CONSTRUCTION_CLASS
 70
     0
 62
     7
  6
CONTINUOUS
  0
LAYER
  5
123
330
F9
100
AcDbSymbolTableRecord
100
AcDbLayerTableRecord
  2
PATTERN_CLASS
 70
     0
 62
     7
  6
CONTINUOUS
  0
LAYER
  5
124
330
F9
100
AcDbSymbolTableRecord
100
AcDbLayerTableRecord
  2
1
 70
     0
 62
     7
  6
CONTINUOUS
  0
ENDTAB
  0
TABLE
  2
STYLE
  5
FA
330
0
100
AcDbSymbolTable
 70
     2
  0
STYLE
  5
108
330
FA
100
AcDbSymbolTableRecord
100
AcDbTextStyleTableRecord
  2
STANDARD
 70
     0
 40
0.0
 41
1.0
 50
0.0
 71
     0
 42
0.0
  3
txt
  4

  0
STYLE
  5
119
330
FA
100
AcDbSymbolTableRecord
100
AcDbTextStyleTableRecord
  2
ROMANC
 70
     0
 40
0.2
 41
1.0
 50
0.0
 71
     0
 42
0.2
  3
ROMANC
  4

  0
ENDTAB
  0
TABLE
  2
VIEW
  5
FD
330
0
100
AcDbSymbolTable
 70
     0
  0
ENDTAB
  0
TABLE
  2
UCS
  5
FE
330
0
100
AcDbSymbolTable
 70
     0
  0
ENDTAB
  0
TABLE
  2
APPID
  5
100
330
0
100
AcDbSymbolTable
 70
     1
  0
APPID
  5
109
330
100
100
AcDbSymbolTableRecord
100
AcDbRegAppTableRecord
  2
ACAD
 70
     0
  0
ENDTAB
  0
TABLE
  2
DIMSTYLE
  5
101
330
0
100
AcDbSymbolTable
 70
     1
  0
DIMSTYLE
105
121
330
101
100
AcDbSymbolTableRecord
100
AcDbDimStyleTableRecord
  2
STANDARD
 70
     0
  3

  4

  5

  6

  7

 40
1.0
 41
0.18
 42
0.0625
 43
0.38
 44
0.18
 45
0.0
 46
0.0
 47
0.0
 48
0.0
140
0.18
141
0.09
142
0.0
143
25.4
144
1.0
145
0.0
146
1.0
147
0.09
 71
     0
 72
     0
 73
     1
 74
     1
 75
     0
 76
     0
 77
     0
 78
     0
170
     0
171
     2
172
     0
173
     0
174
     0
175
     0
176
     0
177
     0
178
     0
270
     2
271
     4
272
     4
273
     2
274
     2
340
108
275
     0
280
     0
281
     0
282
     0
283
     1
284
     0
285
     0
286
     0
287
     5
288
     0
  0
ENDTAB
  0
TABLE
  2
BLOCK_RECORD
  5
F8
330
0
100
AcDbSymbolTable
 70
     0
  0
BLOCK_RECORD
  5
115
102
{ACAD_XDICTIONARY
360
17B
102
}
330
F8
100
AcDbSymbolTableRecord
100
AcDbBlockTableRecord
  2
*MODEL_SPACE
  0
BLOCK_RECORD
  5
111
102
{ACAD_XDICTIONARY
360
179
102
}
330
F8
100
AcDbSymbolTableRecord
100
AcDbBlockTableRecord
  2
*PAPER_SPACE
  0
ENDTAB
  0
ENDSEC
  0
SECTION
  2
BLOCKS
  0
BLOCK
  5
127
330
115
100
AcDbEntity
  8
0
100
AcDbBlockBegin
  2
*MODEL_SPACE
 70
     0
 10
0.0
 20
0.0
 30
0.0
  3
*MODEL_SPACE
  1

  0
ENDBLK
  5
128
330
115
100
AcDbEntity
  8
0
100
AcDbBlockEnd
  0
BLOCK
  5
125
330
111
100
AcDbEntity
 67
     1
  8
0
100
AcDbBlockBegin
  2
*PAPER_SPACE
 70
     0
 10
0.0
 20
0.0
 30
0.0
  3
*PAPER_SPACE
  1

  0
ENDBLK
  5
126
330
111
100
AcDbEntity
 67
     1
  8
0
100
AcDbBlockEnd
  0
ENDSEC
  0
SECTION
  2
ENTITIES
  0
TEXT
  5
29
330
115
100
AcDbEntity
  8
0
  6
CONTINUOUS
 62
     7
100
AcDbText
 10
-4.391
 20
10.6875
 30
107374.1824
 40
0.1
  1
2
  7
ROMANC
100
AcDbText
  0
TEXT
  5
2A
330
115
100
AcDbEntity
  8
0
  6
CONTINUOUS
 62
     7
100
AcDbText
 10
-7.445
 20
11.1285
 30
107374.1824
 40
0.3
  1
ESCALA  1:50
  7
ROMANC
100
AcDbText
  0
LWPOLYLINE
  5
2B
330
115
100
AcDbEntity
  8
CONSTRUCTION_CLASS
  6
CONTINUOUS
 62
     7
100
AcDbPolyline
 90
        4
 70
     1
 43
0.0
 38
107374.1823999999
 10
-9.975000000000001
 20
14.1075
 10
0.5249999999999995
 20
14.1075
 10
0.5249999999999995
 20
-0.7425000000000006
 10
-9.975000000000001
 20
-0.7425000000000006
  0
TEXT
  5
31
330
115
100
AcDbEntity
  8
0
  6
CONTINUOUS
 62
     7
100
AcDbText
 10
-7.426
 20
10.4595
 30
107374.1824
 40
0.3
  1
S = 304 dm
  7
ROMANC
100
AcDbText
  0
TEXT
  5
32
330
115
100
AcDbEntity
  8
0
  6
CONTINUOUS
 62
     7
100
AcDbText
 10
-7.449
 20
9.889500000000001
 30
107374.1824
 40
0.3
  1
P = 69 dm
  7
ROMANC
100
AcDbText
  0
TEXT
  5
33
330
115
100
AcDbEntity
  8
0
  6
CONTINUOUS
 62
     7
100
AcDbText
 10
-7.445
 20
11.7415
 30
107374.1824
 40
0.3
  1
TIPUS   NT304A
  7
ROMANC
100
AcDbText
  0
LINE
  5
35
330
115
100
AcDbEntity
  8
1
  6
CONTINUOUS
 62
     7
100
AcDbLine
 10
-5.977999999999999
 20
3.9745
 30
107374.1824
 11
-5.977999999999999
 21
5.074500000000001
 31
107374.1824
  0
LINE
  5
36
330
115
100
AcDbEntity
  8
1
  6
CONTINUOUS
 62
     7
100
AcDbLine
 10
-5.987999999999999
 20
3.9645
 30
107374.1824
 11
-5.987999999999999
 21
5.074500000000001
 31
107374.1824
  0
LINE
  5
37
330
115
100
AcDbEntity
  8
1
  6
CONTINUOUS
 62
     7
100
AcDbLine
 10
-5.997999999999999
 20
3.9545
 30
107374.1824
 11
-5.997999999999999
 21
5.074500000000001
 31
107374.1824
  0
LINE
  5
38
330
115
100
AcDbEntity
  8
1
  6
CONTINUOUS
 62
     7
100
AcDbLine
 10
-5.538
 20
3.9645
 30
107374.1824
 11
-5.987999999999999
 21
3.9645
 31
107374.1824
  0
LINE
  5
39
330
115
100
AcDbEntity
  8
1
  6
CONTINUOUS
 62
     7
100
AcDbLine
 10
-5.548
 20
3.9545
 30
107374.1824
 11
-5.997999999999999
 21
3.9545
 31
107374.1824
  0
LWPOLYLINE
  5
3A
330
115
100
AcDbEntity
  8
1
  6
CONTINUOUS
 62
     7
100
AcDbPolyline
 90
       44
 70
     0
 43
0.0
 38
107374.1823999999
 10
-5.537931000200988
 20
3.964500014643038
 42
0.0248539985368019
 10
-5.533411002127014
 20
3.893329018722387
 10
-5.533411001181608
 20
3.893329010419793
 42
0.0257120002961359
 10
-5.521746002069097
 20
3.822984009441258
 10
-5.521745999044116
 20
3.822983995635158
 42
0.0262499973503868
 10
-5.503624000768049
 20
3.75701100231336
 10
-5.503623996590241
 20
3.757010989720953
 42
0.0287330047927954
 10
-5.478398990624664
 20
3.693440979834983
 10
-5.478399005219952
 20
3.693441011229245
 42
0.0298529999491481
 10
-5.448273006577031
 20
3.637611010619536
 10
-5.448273001915037
 20
3.637611003094827
 42
0.0341570050921903
 10
-5.411315996297881
 20
3.586105995520656
 10
-5.411315994812
 20
3.586105993728639
 42
0.0359160057449991
 10
-5.371493987136554
 20
3.544453988347266
 10
-5.371494005287164
 20
3.544454004796337
 42
0.0416519949811951
 10
-5.32579601184687
 20
3.50946100759761
 10
-5.325795995366123
 20
3.509460997040556
 42
0.0437079988612666
 10
-5.278999996192301
 20
3.485038998418601
 10
-5.278999998659711
 20
3.485038999441467
 42
0.0484930007659242
 10
-5.228597997761214
 20
3.469561999543804
 10
-5.228597997037752
 20
3.469561999407991
 42
0.0495349992617092
 10
-5.177999997736986
 20
3.464574000001634
 10
-5.178000002263014
 20
3.464574000001638
 42
0.0495349992617092
 10
-5.127402002962192
 20
3.469561999408002
 10
-5.127402002238842
 20
3.469561999543781
 42
0.0484930007659242
 10
-5.077000001340397
 20
3.485038999441428
 10
-5.077000003807587
 20
3.485038998418654
 42
0.0437079988612666
 10
-5.030204004633722
 20
3.509460997040632
 10
-5.030204002275946
 20
3.509460998540391
 42
0.0416519949811951
 10
-4.984506007139144
 20
3.544453993523617
 10
-4.984505998432816
 20
3.544454001419658
 42
0.0359160057449991
 10
-4.944683992776744
 20
3.586106008731628
 10
-4.94468400370199
 20
3.586105995520916
 42
0.0341570050921903
 10
-4.907726998084815
 20
3.637611003095113
 10
-4.907726993422969
 20
3.637611010619536
 42
0.0298529999491481
 10
-4.877600994780049
 20
3.693441011229245
 10
-4.877600997202731
 20
3.693441006016469
 42
0.0287330047927954
 10
-4.852375994319123
 20
3.757011017125362
 10
-4.852375999231952
 20
3.75701100231336
 42
0.0262499973503868
 10
-4.834254000955884
 20
3.822983995635158
 10
-4.834253997930904
 20
3.822984009441258
 42
0.0257120002961359
 10
-4.822588998818392
 20
3.893329010419793
 10
-4.822589001801053
 20
3.893328984146599
 42
0.0248539985368019
 10
-4.818069000276612
 20
3.964499979848119
  0
LWPOLYLINE
  5
68
330
115
100
AcDbEntity
  8
1
  6
CONTINUOUS
 62
     7
100
AcDbPolyline
 90
       44
 70
     0
 43
0.0
 38
107374.1823999999
 10
-5.547725999526186
 20
3.954499982610198
 42
0.0247790001817103
 10
-5.542222997741814
 20
3.882971982220491
 10
-5.542222998385711
 20
3.882971987270522
 42
0.0256989987040579
 10
-5.529555997909054
 20
3.812369991026087
 10
-5.529556000418025
 20
3.812370001795255
 42
0.0262479961160315
 10
-5.510468003937326
 20
3.746302011356154
 10
-5.510468003321919
 20
3.746302009589306
 42
0.0287249987646866
 10
-5.484274005680595
 20
3.682743011809547
 10
-5.484274004495683
 20
3.682743009346744
 42
0.0298290045640862
 10
-5.453223000324678
 20
3.62696500050921
 10
-5.453223001907741
 20
3.626965002994726
 42
0.0340199952859966
 10
-5.41537200801252
 20
3.575616009450674
 10
-5.415372003769724
 20
3.57561600444204
 42
0.0357170014157273
 10
-5.37467100263688
 20
3.534069002332782
 10
-5.374670998030251
 20
3.53406899825499
 42
0.0411870016289095
 10
-5.328163995824525
 20
3.499250997380353
 10
-5.328163994399051
 20
3.499250996500339
 42
0.043123996492194
 10
-5.280536997911854
 20
3.47492099915118
 10
-5.280537002396266
 20
3.474921000977223
 42
0.0476000018956797
 10
-5.229375000451335
 20
3.459537000090062
 10
-5.22937500363056
 20
3.459537000711085
 42
0.0485639988535087
 10
-5.17800000491804
 20
3.454570999996606
 10
-5.177999995082019
 20
3.454570999996606
 42
0.0485639988535087
 10
-5.126624996369498
 20
3.459537000711085
 10
-5.126624999548608
 20
3.45953700009008
 42
0.0476000018956797
 10
-5.075462997603626
 20
3.474921000977256
 10
-5.075463002088147
 20
3.47492099915118
 42
0.043123996492194
 10
-5.027836005600949
 20
3.499250996500339
 10
-5.027836004175417
 20
3.499250997380353
 42
0.0411870016289095
 10
-4.981329001969691
 20
3.53406899825499
 10
-4.981328997363305
 20
3.534069002332592
 42
0.0357170014157273
 10
-4.940627996230489
 20
3.575616004441819
 10
-4.940628006701635
 20
3.575615992095479
 42
0.0340199952859966
 10
-4.902777010316926
 20
3.62696498380449
 10
-4.902776999675264
 20
3.62696500050921
 42
0.0298290045640862
 10
-4.871725995504259
 20
3.682743009346745
 10
-4.871725994319633
 20
3.682743011809141
 42
0.0287249987646866
 10
-4.845531996678317
 20
3.74630200958888
 10
-4.84553199606259
 20
3.746302011356643
 42
0.0262479961160315
 10
-4.826443999581887
 20
3.812370001795759
 10
-4.826444002090888
 20
3.812369991026087
 42
0.0256989987040579
 10
-4.813777001614231
 20
3.882971987270522
 10
-4.813776997834169
 20
3.882972017052651
 42
0.0247790001817103
 10
-4.808273999517572
 20
3.954500017709152
  0
LINE
  5
96
330
115
100
AcDbEntity
  8
1
  6
CONTINUOUS
 62
     7
100
AcDbLine
 10
-4.367999999999999
 20
3.9645
 30
107374.1824
 11
-4.817999999999999
 21
3.9645
 31
107374.1824
  0
LINE
  5
97
330
115
100
AcDbEntity
  8
1
  6
CONTINUOUS
 62
     7
100
AcDbLine
 10
-4.357999999999999
 20
3.9545
 30
107374.1824
 11
-4.807999999999999
 21
3.9545
 31
107374.1824
  0
LINE
  5
98
330
115
100
AcDbEntity
  8
1
  6
CONTINUOUS
 62
     7
100
AcDbLine
 10
-4.367999999999999
 20
5.074500000000001
 30
107374.1824
 11
-4.367999999999999
 21
3.9645
 31
107374.1824
  0
LINE
  5
99
330
115
100
AcDbEntity
  8
1
  6
CONTINUOUS
 62
     7
100
AcDbLine
 10
-4.357999999999999
 20
5.074500000000001
 30
107374.1824
 11
-4.357999999999999
 21
3.9545
 31
107374.1824
  0
ARC
  5
9A
330
115
100
AcDbEntity
  8
1
  6
CONTINUOUS
 62
     7
100
AcDbCircle
 10
-5.177999999999999
 20
5.074500000000001
 30
107374.1824
 40
0.8100000000000001
100
AcDbArc
 50
0.0
 51
180.0
  0
ARC
  5
9B
330
115
100
AcDbEntity
  8
1
  6
CONTINUOUS
 62
     7
100
AcDbCircle
 10
-5.177999999999999
 20
5.074500000000001
 30
107374.1824
 40
0.8200000000000001
100
AcDbArc
 50
0.0
 51
180.0
  0
LINE
  5
9C
330
115
100
AcDbEntity
  8
1
  6
CONTINUOUS
 62
     7
100
AcDbLine
 10
-5.528
 20
3.9745
 30
107374.1824
 11
-5.977999999999999
 21
3.9745
 31
107374.1824
  0
LINE
  5
9D
330
115
100
AcDbEntity
  8
1
  6
CONTINUOUS
 62
     7
100
AcDbLine
 10
-4.378
 20
3.9745
 30
107374.1824
 11
-4.827999999999999
 21
3.9745
 31
107374.1824
  0
TEXT
  5
9E
330
115
100
AcDbEntity
  8
1
  6
CONTINUOUS
 62
     7
100
AcDbText
 10
-5.297
 20
3.1805
 30
107374.1824
 40
0.075
  1
0.70
  7
ROMANC
100
AcDbText
  0
LINE
  5
9F
330
115
100
AcDbEntity
  8
1
  6
CONTINUOUS
 62
     7
100
AcDbLine
 10
-5.335
 20
3.217499999999999
 30
107374.1824
 11
-5.528
 21
3.217499999999999
 31
107374.1824
  0
LINE
  5
A0
330
115
100
AcDbEntity
  8
1
  6
CONTINUOUS
 62
     7
100
AcDbLine
 10
-5.023
 20
3.217499999999999
 30
107374.1824
 11
-4.827999999999999
 21
3.217499999999999
 31
107374.1824
  0
LINE
  5
A1
330
115
100
AcDbEntity
  8
1
  6
CONTINUOUS
 62
     7
100
AcDbLine
 10
-5.564999999999999
 20
3.198499999999999
 30
107374.1824
 11
-5.490999999999999
 21
3.236499999999999
 31
107374.1824
  0
LINE
  5
A2
330
115
100
AcDbEntity
  8
1
  6
CONTINUOUS
 62
     7
100
AcDbLine
 10
-4.791
 20
3.236499999999999
 30
107374.1824
 11
-4.865
 21
3.198499999999999
 31
107374.1824
  0
LINE
  5
A3
330
115
100
AcDbEntity
  8
1
  6
CONTINUOUS
 62
     7
100
AcDbLine
 10
-5.528
 20
3.9365
 30
107374.1824
 11
-5.528
 21
3.1795
 31
107374.1824
  0
LINE
  5
A4
330
115
100
AcDbEntity
  8
1
  6
CONTINUOUS
 62
     7
100
AcDbLine
 10
-4.827999999999999
 20
3.9365
 30
107374.1824
 11
-4.827999999999999
 21
3.1795
 31
107374.1824
  0
LINE
  5
A5
330
115
100
AcDbEntity
  8
1
  6
CONTINUOUS
 62
     7
100
AcDbLine
 10
-4.378
 20
5.074500000000001
 30
107374.1824
 11
-4.378
 21
3.9745
 31
107374.1824
  0
TEXT
  5
A6
330
115
100
AcDbEntity
  8
1
  6
CONTINUOUS
 62
     7
100
AcDbText
 10
-5.288
 20
2.8545
 30
107374.1824
 40
0.075
  1
1.60
  7
ROMANC
100
AcDbText
  0
LINE
  5
A7
330
115
100
AcDbEntity
  8
1
  6
CONTINUOUS
 62
     7
100
AcDbLine
 10
-5.326
 20
2.8925
 30
107374.1824
 11
-5.977999999999999
 21
2.8925
 31
107374.1824
  0
LINE
  5
A8
330
115
100
AcDbEntity
  8
1
  6
CONTINUOUS
 62
     7
100
AcDbLine
 10
-5.030999999999999
 20
2.8925
 30
107374.1824
 11
-4.378
 21
2.8925
 31
107374.1824
  0
LINE
  5
A9
330
115
100
AcDbEntity
  8
1
  6
CONTINUOUS
 62
     7
100
AcDbLine
 10
-6.014999999999999
 20
2.8735
 30
107374.1824
 11
-5.941
 21
2.9115
 31
107374.1824
  0
LINE
  5
AA
330
115
100
AcDbEntity
  8
1
  6
CONTINUOUS
 62
     7
100
AcDbLine
 10
-4.341
 20
2.9115
 30
107374.1824
 11
-4.414999999999999
 21
2.8735
 31
107374.1824
  0
LINE
  5
AB
330
115
100
AcDbEntity
  8
1
  6
CONTINUOUS
 62
     7
100
AcDbLine
 10
-5.977999999999999
 20
3.9365
 30
107374.1824
 11
-5.977999999999999
 21
2.8545
 31
107374.1824
  0
LINE
  5
AC
330
115
100
AcDbEntity
  8
1
  6
CONTINUOUS
 62
     7
100
AcDbLine
 10
-4.378
 20
3.9365
 30
107374.1824
 11
-4.378
 21
2.8545
 31
107374.1824
  0
LWPOLYLINE
  5
AD
330
115
100
AcDbEntity
  8
1
  6
CONTINUOUS
 62
     7
100
AcDbPolyline
 90
       48
 70
     0
 43
0.0
 38
107374.1823999999
 10
-5.527999999999043
 20
3.974500011525029
 42
0.0228649968210134
 10
-5.525032001876626
 20
3.909517020483434
 10
-5.525031999571921
 20
3.909516995320219
 42
0.0234709996725625
 10
-5.516073999302227
 20
3.845089996272894
 10
-5.516074002101649
 20
3.845090011234234
 42
0.0238739964716721
 10
-5.50157900573423
 20
3.783921019910327
 10
-5.501578998305517
 20
3.783920994112162
 42
0.0257719993602497
 10
-5.481108998292203
 20
3.724499995764645
 10
-5.481109000291486
 20
3.724500000723012
 42
0.0266339956797337
 10
-5.45621900485907
 20
3.671138009116529
 10
-5.456219002488311
 20
3.671138004671395
 42
0.030000005794081
 10
-5.425486996523604
 20
3.620946995019585
 10
-5.425487001027451
 20
3.620947001471621
 42
0.0313870059294396
 10
-5.391905994372351
 20
3.578756993774684
 10
-5.391906001890344
 20
3.578757002092925
 42
0.0361629993376322
 10
-5.353000002932239
 20
3.541487002428107
 10
-5.35300000183616
 20
3.541487001517464
 42
0.0379639958937815
 10
-5.312785006614453
 20
3.513094003954773
 10
-5.312784997844238
 20
3.513093998708734
 42
0.042973996438542
 10
-5.268587001457895
 20
3.491537000561954
 10
-5.268587000881107
 20
3.491537000337092
 42
0.0444700044626234
 10
-5.224054996363054
 20
3.478899999309513
 10
-5.224054996038114
 20
3.478899999243068
 42
0.0467990060135112
 10
-5.177999990021646
 20
3.474499999982842
 10
-5.17799999797022
 20
3.474500000003481
 42
0.0467990060135112
 10
-5.131944992167014
 20
3.478900001496521
 10
-5.131945003636888
 20
3.478899999309513
 42
0.0444700044626234
 10
-5.087412999118835
 20
3.491537000337092
 10
-5.087412998542046
 20
3.491537000561955
 42
0.042973996438542
 10
-5.043215002155704
 20
3.513093998708734
 10
-5.043214993385704
 20
3.513094003954658
 42
0.0379639958937815
 10
-5.002999998164035
 20
3.541487001517322
 10
-5.002999997067762
 20
3.541487002428107
 42
0.0361629993376322
 10
-4.964093998109657
 20
3.578757002092926
 10
-4.964094005627382
 20
3.578756993774953
 42
0.0313870059294396
 10
-4.930512998972259
 20
3.620947001471917
 10
-4.930513003476397
 20
3.620946995019586
 42
0.030000005794081
 10
-4.899780997511689
 20
3.671138004671395
 10
-4.899780995141129
 20
3.671138009116105
 42
0.0266339956797337
 10
-4.874890999708723
 20
3.724500000722566
 10
-4.874891001707855
 20
3.724499995764645
 42
0.0257719993602497
 10
-4.854421001694541
 20
3.783920994112163
 10
-4.854421003103169
 20
3.783920989225143
 42
0.0238739964716721
 10
-4.839926003770194
 20
3.845089979846314
 10
-4.83992600069775
 20
3.845089996273483
 42
0.0234709996725625
 10
-4.830968000428054
 20
3.909516995320816
 10
-4.830968001271011
 20
3.909516986127022
 42
0.0228649968210134
 10
-4.82799999999813
 20
3.974499977024725
  0
TEXT
  5
DF
330
115
100
AcDbEntity
  8
1
  6
CONTINUOUS
 62
     7
100
AcDbText
 10
-4.000999999999999
 20
3.6075
 30
107374.1824
 40
0.075
  1
0.50
 50
90.0
  7
ROMANC
100
AcDbText
  0
LINE
  5
E0
330
115
100
AcDbEntity
  8
1
  6
CONTINUOUS
 62
     7
100
AcDbLine
 10
-4.038
 20
4.1245
 30
107374.1824
 11
-4.038
 21
3.9745
 31
107374.1824
  0
LINE
  5
E1
330
115
100
AcDbEntity
  8
1
  6
CONTINUOUS
 62
     7
100
AcDbLine
 10
-4.038
 20
3.3245
 30
107374.1824
 11
-4.038
 21
3.4745
 31
107374.1824
  0
LINE
  5
E2
330
115
100
AcDbEntity
  8
1
  6
CONTINUOUS
 62
     7
100
AcDbLine
 10
-4.019
 20
3.9365
 30
107374.1824
 11
-4.057
 21
4.012500000000001
 31
107374.1824
  0
LINE
  5
E3
330
115
100
AcDbEntity
  8
1
  6
CONTINUOUS
 62
     7
100
AcDbLine
 10
-4.057
 20
3.5125
 30
107374.1824
 11
-4.019
 21
3.4365
 31
107374.1824
  0
LINE
  5
E4
330
115
100
AcDbEntity
  8
1
  6
CONTINUOUS
 62
     7
100
AcDbLine
 10
-4.789999999999999
 20
3.9745
 30
107374.1824
 11
-4.0
 21
3.9745
 31
107374.1824
  0
LINE
  5
E5
330
115
100
AcDbEntity
  8
1
  6
CONTINUOUS
 62
     7
100
AcDbLine
 10
-5.139999999999999
 20
3.4745
 30
107374.1824
 11
-4.0
 21
3.4745
 31
107374.1824
  0
ARC
  5
E6
330
115
100
AcDbEntity
  8
1
  6
CONTINUOUS
 62
     7
100
AcDbCircle
 10
-5.177999999999999
 20
5.074500000000001
 30
107374.1824
 40
0.8
100
AcDbArc
 50
0.0
 51
180.0
  0
TEXT
  5
E7
330
115
100
AcDbEntity
  8
1
  6
CONTINUOUS
 62
     7
100
AcDbText
 10
-6.574999999999999
 20
4.552500000000001
 30
107374.1824
 40
0.075
  1
2.40
 50
90.0
  7
ROMANC
100
AcDbText
  0
LINE
  5
E8
330
115
100
AcDbEntity
  8
1
  6
CONTINUOUS
 62
     7
100
AcDbLine
 10
-6.612
 20
4.5145
 30
107374.1824
 11
-6.612
 21
3.4745
 31
107374.1824
  0
LINE
  5
E9
330
115
100
AcDbEntity
  8
1
  6
CONTINUOUS
 62
     7
100
AcDbLine
 10
-6.612
 20
4.8335
 30
107374.1824
 11
-6.612
 21
5.874500000000001
 31
107374.1824
  0
LINE
  5
EA
330
115
100
AcDbEntity
  8
1
  6
CONTINUOUS
 62
     7
100
AcDbLine
 10
-6.592999999999999
 20
3.4365
 30
107374.1824
 11
-6.631
 21
3.5125
 31
107374.1824
  0
LINE
  5
EB
330
115
100
AcDbEntity
  8
1
  6
CONTINUOUS
 62
     7
100
AcDbLine
 10
-6.631
 20
5.912500000000001
 30
107374.1824
 11
-6.592999999999999
 21
5.8365
 31
107374.1824
  0
LINE
  5
EC
330
115
100
AcDbEntity
  8
1
  6
CONTINUOUS
 62
     7
100
AcDbLine
 10
-5.216
 20
3.4745
 30
107374.1824
 11
-6.65
 21
3.4745
 31
107374.1824
  0
LINE
  5
ED
330
115
100
AcDbEntity
  8
1
  6
CONTINUOUS
 62
     7
100
AcDbLine
 10
-5.216
 20
5.874500000000001
 30
107374.1824
 11
-6.65
 21
5.874500000000001
 31
107374.1824
  0
TEXT
  5
EE
330
115
100
AcDbEntity
  8
1
  6
CONTINUOUS
 62
     7
100
AcDbText
 10
-5.288
 20
6.310500000000001
 30
107374.1824
 40
0.075
  1
1.60
  7
ROMANC
100
AcDbText
  0
LINE
  5
EF
330
115
100
AcDbEntity
  8
1
  6
CONTINUOUS
 62
     7
100
AcDbLine
 10
-5.326
 20
6.347500000000001
 30
107374.1824
 11
-5.977999999999999
 21
6.347500000000001
 31
107374.1824
  0
LINE
  5
F0
330
115
100
AcDbEntity
  8
1
  6
CONTINUOUS
 62
     7
100
AcDbLine
 10
-5.030999999999999
 20
6.347500000000001
 30
107374.1824
 11
-4.378
 21
6.347500000000001
 31
107374.1824
  0
LINE
  5
F1
330
115
100
AcDbEntity
  8
1
  6
CONTINUOUS
 62
     7
100
AcDbLine
 10
-6.014999999999999
 20
6.3285
 30
107374.1824
 11
-5.941
 21
6.366500000000001
 31
107374.1824
  0
LINE
  5
F2
330
115
100
AcDbEntity
  8
1
  6
CONTINUOUS
 62
     7
100
AcDbLine
 10
-4.341
 20
6.366500000000001
 30
107374.1824
 11
-4.414999999999999
 21
6.3285
 31
107374.1824
  0
LINE
  5
F3
330
115
100
AcDbEntity
  8
1
  6
CONTINUOUS
 62
     7
100
AcDbLine
 10
-5.977999999999999
 20
5.1125
 30
107374.1824
 11
-5.977999999999999
 21
6.385500000000001
 31
107374.1824
  0
LINE
  5
F4
330
115
100
AcDbEntity
  8
1
  6
CONTINUOUS
 62
     7
100
AcDbLine
 10
-4.378
 20
5.1125
 30
107374.1824
 11
-4.378
 21
6.385500000000001
 31
107374.1824
  0
ENDSEC
  0
SECTION
  2
OBJECTS
  0
DICTIONARY
  5
103
330
0
100
AcDbDictionary
  3
ACAD_GROUP
350
104
  3
ACAD_LAYOUT
350
110
  3
ACAD_MLINESTYLE
350
10D
  3
ACAD_PLOTSETTINGS
350
10F
  3
ACAD_PLOTSTYLENAME
350
105
  3
ACDBHEADERROUNDTRIPXREC
350
158
  0
DICTIONARY
  5
17B
330
115
100
AcDbDictionary
280
     1
  3
ACAD_LAYOUTSELFREF
360
17C
  0
DICTIONARY
  5
179
330
111
100
AcDbDictionary
280
     1
  3
ACAD_LAYOUTSELFREF
360
17A
  0
DICTIONARY
  5
104
102
{ACAD_REACTORS
330
103
102
}
330
103
100
AcDbDictionary
  0
DICTIONARY
  5
110
102
{ACAD_REACTORS
330
103
102
}
330
103
100
AcDbDictionary
  0
DICTIONARY
  5
10D
102
{ACAD_REACTORS
330
103
102
}
330
103
100
AcDbDictionary
  3
STANDARD
350
10E
  0
DICTIONARY
  5
10F
102
{ACAD_REACTORS
330
103
102
}
330
103
100
AcDbDictionary
  0
ACDBDICTIONARYWDFLT
  5
105
102
{ACAD_REACTORS
330
103
102
}
330
103
100
AcDbDictionary
281
     1
  3
Normal
350
106
100
AcDbDictionaryWithDefault
340
106
  0
DICTIONARY
  5
158
102
{ACAD_REACTORS
330
103
102
}
330
103
100
AcDbDictionary
  3
TSTACKALIGN
350
159
  3
TSTACKSIZE
350
15A
  3
HYPERLINKBASE
350
15B
  3
STYLESHEET
350
15C
  3
LAYOUTDICT
350
15D
  3
PLOTSETDICT
350
15E
  3
PLOTSTYLNAMDICT
350
15F
  3
LWETCUNION
350
160
  3
INSUNITS
350
161
  3
CEPSNTYPE
350
162
  3
FINGERPRINTGUID
350
163
  3
VERSIONGUID
350
164
  3
PSVPSCALE
350
165
  3
DIMSTYLEDATA
350
166
  3
PUCSORTHOREF
350
167
  3
PUCSORTHOVIEW
350
168
  3
PUCSBASE
350
169
  3
PUCSORGTOP
350
16A
  3
PUCSORGBOTTOM
350
16B
  3
PUCSORGLEFT
350
16C
  3
PUCSORGRIGHT
350
16D
  3
PUCSORGFRONT
350
16E
  3
PUCSORGBACK
350
16F
  3
UCSORTHOREF
350
170
  3
UCSORTHOVIEW
350
171
  3
UCSBASE
350
172
  3
UCSORGTOP
350
173
  3
UCSORGBOTTOM
350
174
  3
UCSORGLEFT
350
175
  3
UCSORGRIGHT
350
176
  3
UCSORGFRONT
350
177
  3
UCSORGBACK
350
178
  0
XRECORD
  5
17C
102
{ACAD_REACTORS
330
17B
102
}
330
17B
100
AcDbXrecord
340
115
  0
XRECORD
  5
17A
102
{ACAD_REACTORS
330
179
102
}
330
179
100
AcDbXrecord
340
111
  0
MLINESTYLE
  5
10E
102
{ACAD_REACTORS
330
10D
102
}
330
10D
100
AcDbMlineStyle
  2
STANDARD
 70
     0
  3

 62
   256
 51
90.0
 52
90.0
 71
     2
 49
0.5
 62
   256
  6
BYLAYER
 49
-0.5
 62
   256
  6
BYLAYER
  0
ACDBPLACEHOLDER
  5
106
102
{ACAD_REACTORS
330
105
102
}
330
105
100
AcDbPlaceHolder
280
     0
  0
XRECORD
  5
159
102
{ACAD_REACTORS
330
158
102
}
330
158
100
AcDbXrecord
 90
        1
  0
XRECORD
  5
15A
102
{ACAD_REACTORS
330
158
102
}
330
158
100
AcDbXrecord
 90
       70
  0
XRECORD
  5
15B
102
{ACAD_REACTORS
330
158
102
}
330
158
100
AcDbXrecord
  1

  0
XRECORD
  5
15C
102
{ACAD_REACTORS
330
158
102
}
330
158
100
AcDbXrecord
  1
Blanc i negre.ctb
  0
XRECORD
  5
15D
102
{ACAD_REACTORS
330
158
102
}
330
158
100
AcDbXrecord
340
110
  0
XRECORD
  5
15E
102
{ACAD_REACTORS
330
158
102
}
330
158
100
AcDbXrecord
340
10F
  0
XRECORD
  5
15F
102
{ACAD_REACTORS
330
158
102
}
330
158
100
AcDbXrecord
340
105
  0
XRECORD
  5
160
102
{ACAD_REACTORS
330
158
102
}
330
158
100
AcDbXrecord
 90
    10781
  0
XRECORD
  5
161
102
{ACAD_REACTORS
330
158
102
}
330
158
100
AcDbXrecord
 90
        0
  0
XRECORD
  5
162
102
{ACAD_REACTORS
330
158
102
}
330
158
100
AcDbXrecord
 90
        0
  0
XRECORD
  5
163
102
{ACAD_REACTORS
330
158
102
}
330
158
100
AcDbXrecord
  1
{E91C3570-232F-4154-A191-690C677FE5FC}
  0
XRECORD
  5
164
102
{ACAD_REACTORS
330
158
102
}
330
158
100
AcDbXrecord
  1
{4AD8767E-6537-433E-9D76-1DCDB53AE27A}
  0
XRECORD
  5
165
102
{ACAD_REACTORS
330
158
102
}
330
158
100
AcDbXrecord
 40
0.0
  0
XRECORD
  5
166
102
{ACAD_REACTORS
330
158
102
}
330
158
100
AcDbXrecord
1000
DSTYLE
1002
{
1070
   279
 70
     2
1002
}
  0
XRECORD
  5
167
102
{ACAD_REACTORS
330
158
102
}
330
158
100
AcDbXrecord
340
0
  0
XRECORD
  5
168
102
{ACAD_REACTORS
330
158
102
}
330
158
100
AcDbXrecord
 70
     0
  0
XRECORD
  5
169
102
{ACAD_REACTORS
330
158
102
}
330
158
100
AcDbXrecord
340
0
  0
XRECORD
  5
16A
102
{ACAD_REACTORS
330
158
102
}
330
158
100
AcDbXrecord
 10
0.0
 20
0.0
 30
0.0
  0
XRECORD
  5
16B
102
{ACAD_REACTORS
330
158
102
}
330
158
100
AcDbXrecord
 10
0.0
 20
0.0
 30
0.0
  0
XRECORD
  5
16C
102
{ACAD_REACTORS
330
158
102
}
330
158
100
AcDbXrecord
 10
0.0
 20
0.0
 30
0.0
  0
XRECORD
  5
16D
102
{ACAD_REACTORS
330
158
102
}
330
158
100
AcDbXrecord
 10
0.0
 20
0.0
 30
0.0
  0
XRECORD
  5
16E
102
{ACAD_REACTORS
330
158
102
}
330
158
100
AcDbXrecord
 10
0.0
 20
0.0
 30
0.0
  0
XRECORD
  5
16F
102
{ACAD_REACTORS
330
158
102
}
330
158
100
AcDbXrecord
 10
0.0
 20
0.0
 30
0.0
  0
XRECORD
  5
170
102
{ACAD_REACTORS
330
158
102
}
330
158
100
AcDbXrecord
340
0
  0
XRECORD
  5
171
102
{ACAD_REACTORS
330
158
102
}
330
158
100
AcDbXrecord
 70
     0
  0
XRECORD
  5
172
102
{ACAD_REACTORS
330
158
102
}
330
158
100
AcDbXrecord
340
0
  0
XRECORD
  5
173
102
{ACAD_REACTORS
330
158
102
}
330
158
100
AcDbXrecord
 10
0.0
 20
0.0
 30
0.0
  0
XRECORD
  5
174
102
{ACAD_REACTORS
330
158
102
}
330
158
100
AcDbXrecord
 10
0.0
 20
0.0
 30
0.0
  0
XRECORD
  5
175
102
{ACAD_REACTORS
330
158
102
}
330
158
100
AcDbXrecord
 10
0.0
 20
0.0
 30
0.0
  0
XRECORD
  5
176
102
{ACAD_REACTORS
330
158
102
}
330
158
100
AcDbXrecord
 10
0.0
 20
0.0
 30
0.0
  0
XRECORD
  5
177
102
{ACAD_REACTORS
330
158
102
}
330
158
100
AcDbXrecord
 10
0.0
 20
0.0
 30
0.0
  0
XRECORD
  5
178
102
{ACAD_REACTORS
330
158
102
}
330
158
100
AcDbXrecord
 10
0.0
 20
0.0
 30
0.0
  0
ENDSEC
  0
EOF
