  0
SECTION
  2
HEADER
  9
$ACADVER
  1
AC1009
  9
$INSBASE
 10
105.464027
 20
-4.528761
 30
0.0
  9
$EXTMIN
 10
281.395795
 20
29.897444
 30
0.0
  9
$EXTMAX
 10
291.895795
 20
44.747444
 30
0.0
  9
$LIMMIN
 10
0.0
 20
0.0
  9
$LIMMAX
 10
410.0
 20
287.0
  9
$ORTHOMODE
 70
     0
  9
$REGENMODE
 70
     1
  9
$FILLMODE
 70
     1
  9
$QTEXTMODE
 70
     0
  9
$MIRRTEXT
 70
     1
  9
$DRAGMODE
 70
     2
  9
$LTSCALE
 40
25.0
  9
$OSMODE
 70
    32
  9
$ATTMODE
 70
     1
  9
$TEXTSIZE
 40
0.1
  9
$TRACEWID
 40
1.0
  9
$TEXTSTYLE
  7
ROMANC
  9
$CLAYER
  8
0
  9
$CELTYPE
  6
BYLAYER
  9
$CECOLOR
 62
   256
  9
$DIMSCALE
 40
1.5
  9
$DIMASZ
 40
0.1
  9
$DIMEXO
 40
0.01
  9
$DIMDLI
 40
7.0
  9
$DIMRND
 40
0.0
  9
$DIMDLE
 40
0.0
  9
$DIMEXE
 40
0.01
  9
$DIMTP
 40
0.0
  9
$DIMTM
 40
0.0
  9
$DIMTXT
 40
0.05
  9
$DIMCEN
 40
0.1
  9
$DIMTSZ
 40
0.0
  9
$DIMTOL
 70
     0
  9
$DIMLIM
 70
     0
  9
$DIMTIH
 70
     0
  9
$DIMTOH
 70
     0
  9
$DIMSE1
 70
     0
  9
$DIMSE2
 70
     0
  9
$DIMTAD
 70
     1
  9
$DIMZIN
 70
     0
  9
$DIMBLK
  1

  9
$DIMASO
 70
     1
  9
$DIMSHO
 70
     0
  9
$DIMPOST
  1

  9
$DIMAPOST
  1

  9
$DIMALT
 70
     0
  9
$DIMALTD
 70
     2
  9
$DIMALTF
 40
25.4
  9
$DIMLFAC
 40
1.0
  9
$DIMTOFL
 70
     1
  9
$DIMTVP
 40
0.0
  9
$DIMTIX
 70
     1
  9
$DIMSOXD
 70
     0
  9
$DIMSAH
 70
     0
  9
$DIMBLK1
  1

  9
$DIMBLK2
  1

  9
$DIMSTYLE
  2
SILVIA
  9
$DIMCLRD
 70
     0
  9
$DIMCLRE
 70
     0
  9
$DIMCLRT
 70
     0
  9
$DIMTFAC
 40
70.0
  9
$DIMGAP
 40
0.09
  9
$LUNITS
 70
     2
  9
$LUPREC
 70
     2
  9
$SKETCHINC
 40
1.0
  9
$FILLETRAD
 40
0.0
  9
$AUNITS
 70
     0
  9
$AUPREC
 70
     0
  9
$MENU
  1
acad
  9
$ELEVATION
 40
0.0
  9
$PELEVATION
 40
0.0
  9
$THICKNESS
 40
0.0
  9
$LIMCHECK
 70
     0
  9
$BLIPMODE
 70
     0
  9
$CHAMFERA
 40
0.0
  9
$CHAMFERB
 40
0.0
  9
$SKPOLY
 70
     0
  9
$TDCREATE
 40
2450305.554557986
  9
$TDUPDATE
 40
2450386.758892939
  9
$TDINDWG
 40
0.0493255787
  9
$TDUSRTIMER
 40
0.0493255787
  9
$USRTIMER
 70
     1
  9
$ANGBASE
 50
0.0
  9
$ANGDIR
 70
     0
  9
$PDMODE
 70
     0
  9
$PDSIZE
 40
0.0
  9
$PLINEWID
 40
0.0
  9
$COORDS
 70
     2
  9
$SPLFRAME
 70
     0
  9
$SPLINETYPE
 70
     6
  9
$SPLINESEGS
 70
     8
  9
$ATTDIA
 70
     0
  9
$ATTREQ
 70
     1
  9
$HANDLING
 70
     0
  9
$HANDSEED
  5
0
  9
$SURFTAB1
 70
     6
  9
$SURFTAB2
 70
     6
  9
$SURFTYPE
 70
     6
  9
$SURFU
 70
     6
  9
$SURFV
 70
     6
  9
$UCSNAME
  2

  9
$UCSORG
 10
0.0
 20
0.0
 30
0.0
  9
$UCSXDIR
 10
1.0
 20
0.0
 30
0.0
  9
$UCSYDIR
 10
0.0
 20
1.0
 30
0.0
  9
$PUCSNAME
  2

  9
$PUCSORG
 10
0.0
 20
0.0
 30
0.0
  9
$PUCSXDIR
 10
1.0
 20
0.0
 30
0.0
  9
$PUCSYDIR
 10
0.0
 20
1.0
 30
0.0
  9
$USERI1
 70
     0
  9
$USERI2
 70
     0
  9
$USERI3
 70
     0
  9
$USERI4
 70
     0
  9
$USERI5
 70
     0
  9
$USERR1
 40
0.0
  9
$USERR2
 40
0.0
  9
$USERR3
 40
0.0
  9
$USERR4
 40
0.0
  9
$USERR5
 40
0.0
  9
$WORLDVIEW
 70
     1
  9
$SHADEDGE
 70
     3
  9
$SHADEDIF
 70
    70
  9
$TILEMODE
 70
     1
  9
$MAXACTVP
 70
    16
  9
$PINSBASE
 10
0.0
 20
0.0
 30
0.0
  9
$PLIMCHECK
 70
     0
  9
$PEXTMIN
 10
1.000000E+20
 20
1.000000E+20
 30
1.000000E+20
  9
$PEXTMAX
 10
-1.000000E+20
 20
-1.000000E+20
 30
-1.000000E+20
  9
$PLIMMIN
 10
0.0
 20
0.0
  9
$PLIMMAX
 10
12.0
 20
9.0
  9
$UNITMODE
 70
     0
  9
$VISRETAIN
 70
     0
  9
$PLINEGEN
 70
     0
  9
$PSLTSCALE
 70
     0
  9
$TREEDEPTH
 70
  3020
  9
$DWGCODEPAGE
  3
iso8859-1
  0
ENDSEC
  0
SECTION
  2
TABLES
  0
TABLE
  2
VPORT
 70
     2
  0
VPORT
  2
*ACTIVE
 70
     0
 10
0.0
 20
0.0
 11
1.0
 21
1.0
 12
293.710134
 22
37.40737
 13
0.0
 23
0.0
 14
1.0
 24
1.0
 15
10.0
 25
10.0
 16
0.0
 26
0.0
 36
1.0
 17
0.0
 27
0.0
 37
0.0
 40
15.019853
 41
1.639742
 42
50.0
 43
0.0
 44
0.0
 50
0.0
 51
0.0
 71
     0
 72
   100
 73
     1
 74
     0
 75
     0
 76
     0
 77
     0
 78
     1
  0
ENDTAB
  0
TABLE
  2
LTYPE
 70
     1
  0
LTYPE
  2
CONTINUOUS
 70
    64
  3
Solid line
 72
    65
 73
     0
 40
0.0
  0
ENDTAB
  0
TABLE
  2
LAYER
 70
     3
  0
LAYER
  2
0
 70
    64
 62
     7
  6
CONTINUOUS
  0
LAYER
  2
MESURA
 70
     0
 62
     7
  6
CONTINUOUS
  0
LAYER
  2
DEFPOINTS
 70
    64
 62
     7
  6
CONTINUOUS
  0
ENDTAB
  0
TABLE
  2
STYLE
 70
     2
  0
STYLE
  2
STANDARD
 70
     0
 40
0.0
 41
1.0
 50
0.0
 71
     0
 42
0.1
  3
txt
  4

  0
STYLE
  2
ROMANC
 70
    64
 40
0.0
 41
1.0
 50
0.0
 71
     0
 42
0.1
  3
romanc
  4

  0
ENDTAB
  0
TABLE
  2
VIEW
 70
     0
  0
ENDTAB
  0
TABLE
  2
UCS
 70
     0
  0
ENDTAB
  0
TABLE
  2
APPID
 70
     1
  0
APPID
  2
ACAD
 70
    64
  0
ENDTAB
  0
TABLE
  2
DIMSTYLE
 70
     1
  0
DIMSTYLE
  2
SILVIA
 70
    64
  3

  4

  5

  6

  7

 40
1.5
 41
0.1
 42
0.01
 43
7.0
 44
0.01
 45
0.0
 46
0.0
 47
0.0
 48
0.0
140
0.05
141
0.1
142
0.0
143
25.4
144
1.0
145
0.0
146
70.0
147
0.09
 71
     0
 72
     0
 73
     0
 74
     0
 75
     0
 76
     0
 77
     1
 78
     0
170
     0
171
     2
172
     1
173
     0
174
     1
175
     0
176
     0
177
     0
178
     0
  0
ENDTAB
  0
ENDSEC
  0
SECTION
  2
BLOCKS
  0
BLOCK
  8
0
  2
*D0
 70
    65
 10
0.0
 20
0.0
 30
0.0
  3
*D
  0
LINE
  8
0
  6
BYBLOCK
 62
     0
 10
286.262002
 20
35.838868
 30
0.0
 11
286.262002
 21
34.970212
 31
0.0
  0
LINE
  8
0
  6
BYBLOCK
 62
     0
 10
285.562002
 20
35.838868
 30
0.0
 11
285.562002
 21
34.970212
 31
0.0
  0
LINE
  8
0
  6
BYBLOCK
 62
     0
 10
286.412002
 20
34.985212
 30
0.0
 11
286.562002
 21
34.985212
 31
0.0
  0
LINE
  8
0
  6
BYBLOCK
 62
     0
 10
285.412002
 20
34.985212
 30
0.0
 11
285.262002
 21
34.985212
 31
0.0
  0
SOLID
  8
0
  6
BYBLOCK
 62
     0
 10
286.412002
 20
35.010212
 30
0.0
 11
286.412002
 21
34.960212
 31
0.0
 12
286.262002
 22
34.985212
 32
0.0
 13
286.262002
 23
34.985212
 33
0.0
  0
SOLID
  8
0
  6
BYBLOCK
 62
     0
 10
285.412002
 20
35.010212
 30
0.0
 11
285.412002
 21
34.960212
 31
0.0
 12
285.562002
 22
34.985212
 32
0.0
 13
285.562002
 23
34.985212
 33
0.0
  0
LINE
  8
0
  6
BYBLOCK
 62
     0
 10
286.262002
 20
34.985212
 30
0.0
 11
285.562002
 21
34.985212
 31
0.0
  0
TEXT
  8
0
  6
BYBLOCK
 62
     0
 10
285.787002
 20
35.022712
 30
0.0
 40
0.075
  1
0.70
  7
ROMANC
 72
     1
 11
285.912002
 21
35.060212
 31
0.0
 73
     2
  0
POINT
  8
DEFPOINTS
  6
BYBLOCK
 62
     0
 10
286.262002
 20
35.853868
 30
0.0
  0
POINT
  8
DEFPOINTS
  6
BYBLOCK
 62
     0
 10
285.562002
 20
35.853868
 30
0.0
  0
POINT
  8
DEFPOINTS
  6
BYBLOCK
 62
     0
 10
285.562002
 20
34.985212
 30
0.0
  0
ENDBLK
  8
0
  0
BLOCK
  8
0
  2
*D1
 70
    65
 10
0.0
 20
0.0
 30
0.0
  3
*D
  0
LINE
  8
0
  6
BYBLOCK
 62
     0
 10
285.762002
 20
35.838868
 30
0.0
 11
285.762002
 21
35.366492
 31
0.0
  0
LINE
  8
0
  6
BYBLOCK
 62
     0
 10
286.062002
 20
35.838868
 30
0.0
 11
286.062002
 21
35.366492
 31
0.0
  0
LINE
  8
0
  6
BYBLOCK
 62
     0
 10
285.612002
 20
35.381492
 30
0.0
 11
285.462002
 21
35.381492
 31
0.0
  0
LINE
  8
0
  6
BYBLOCK
 62
     0
 10
286.212002
 20
35.381492
 30
0.0
 11
286.362002
 21
35.381492
 31
0.0
  0
SOLID
  8
0
  6
BYBLOCK
 62
     0
 10
285.612002
 20
35.406492
 30
0.0
 11
285.612002
 21
35.356492
 31
0.0
 12
285.762002
 22
35.381492
 32
0.0
 13
285.762002
 23
35.381492
 33
0.0
  0
SOLID
  8
0
  6
BYBLOCK
 62
     0
 10
286.212002
 20
35.406492
 30
0.0
 11
286.212002
 21
35.356492
 31
0.0
 12
286.062002
 22
35.381492
 32
0.0
 13
286.062002
 23
35.381492
 33
0.0
  0
LINE
  8
0
  6
BYBLOCK
 62
     0
 10
285.762002
 20
35.381492
 30
0.0
 11
286.062002
 21
35.381492
 31
0.0
  0
TEXT
  8
0
  6
BYBLOCK
 62
     0
 10
285.787002
 20
35.418992
 30
0.0
 40
0.075
  1
0.30
  7
ROMANC
 72
     1
 11
285.912002
 21
35.456492
 31
0.0
 73
     2
  0
POINT
  8
DEFPOINTS
  6
BYBLOCK
 62
     0
 10
285.762002
 20
35.853868
 30
0.0
  0
POINT
  8
DEFPOINTS
  6
BYBLOCK
 62
     0
 10
286.062002
 20
35.853868
 30
0.0
  0
POINT
  8
DEFPOINTS
  6
BYBLOCK
 62
     0
 10
286.062002
 20
35.381492
 30
0.0
  0
ENDBLK
  8
0
  0
BLOCK
  8
0
  2
*D2
 70
    65
 10
0.0
 20
0.0
 30
0.0
  3
*D
  0
LINE
  8
0
  6
BYBLOCK
 62
     0
 10
286.277002
 20
36.153868
 30
0.0
 11
286.54811
 21
36.153868
 31
0.0
  0
LINE
  8
0
  6
BYBLOCK
 62
     0
 10
285.927002
 20
36.503868
 30
0.0
 11
286.54811
 21
36.503868
 31
0.0
  0
LINE
  8
0
  6
BYBLOCK
 62
     0
 10
286.53311
 20
36.003868
 30
0.0
 11
286.53311
 21
35.853868
 31
0.0
  0
LINE
  8
0
  6
BYBLOCK
 62
     0
 10
286.53311
 20
36.653868
 30
0.0
 11
286.53311
 21
36.803868
 31
0.0
  0
SOLID
  8
0
  6
BYBLOCK
 62
     0
 10
286.50811
 20
36.003868
 30
0.0
 11
286.55811
 21
36.003868
 31
0.0
 12
286.53311
 22
36.153868
 32
0.0
 13
286.53311
 23
36.153868
 33
0.0
  0
SOLID
  8
0
  6
BYBLOCK
 62
     0
 10
286.50811
 20
36.653868
 30
0.0
 11
286.55811
 21
36.653868
 31
0.0
 12
286.53311
 22
36.503868
 32
0.0
 13
286.53311
 23
36.503868
 33
0.0
  0
LINE
  8
0
  6
BYBLOCK
 62
     0
 10
286.53311
 20
36.153868
 30
0.0
 11
286.53311
 21
36.503868
 31
0.0
  0
TEXT
  8
0
  6
BYBLOCK
 62
     0
 10
286.49561
 20
36.203868
 30
0.0
 40
0.075
  1
0.35
 50
90.0
  7
ROMANC
 72
     1
 11
286.45811
 21
36.328868
 31
0.0
 73
     2
  0
POINT
  8
DEFPOINTS
  6
BYBLOCK
 62
     0
 10
286.262002
 20
36.153868
 30
0.0
  0
POINT
  8
DEFPOINTS
  6
BYBLOCK
 62
     0
 10
285.912002
 20
36.503868
 30
0.0
  0
POINT
  8
DEFPOINTS
  6
BYBLOCK
 62
     0
 10
286.53311
 20
36.503868
 30
0.0
  0
ENDBLK
  8
0
  0
BLOCK
  8
0
  2
*D3
 70
    65
 10
0.0
 20
0.0
 30
0.0
  3
*D
  0
LINE
  8
0
  6
BYBLOCK
 62
     0
 10
285.927002
 20
36.503868
 30
0.0
 11
286.887999
 21
36.503868
 31
0.0
  0
LINE
  8
0
  6
BYBLOCK
 62
     0
 10
285.927002
 20
35.603868
 30
0.0
 11
286.887999
 21
35.603868
 31
0.0
  0
LINE
  8
0
  6
BYBLOCK
 62
     0
 10
286.872999
 20
36.353868
 30
0.0
 11
286.872999
 21
35.753868
 31
0.0
  0
SOLID
  8
0
  6
BYBLOCK
 62
     0
 10
286.847999
 20
36.353868
 30
0.0
 11
286.897999
 21
36.353868
 31
0.0
 12
286.872999
 22
36.503868
 32
0.0
 13
286.872999
 23
36.503868
 33
0.0
  0
SOLID
  8
0
  6
BYBLOCK
 62
     0
 10
286.847999
 20
35.753868
 30
0.0
 11
286.897999
 21
35.753868
 31
0.0
 12
286.872999
 22
35.603868
 32
0.0
 13
286.872999
 23
35.603868
 33
0.0
  0
TEXT
  8
0
  6
BYBLOCK
 62
     0
 10
286.835499
 20
35.928868
 30
0.0
 40
0.075
  1
0.90
 50
90.0
  7
ROMANC
 72
     1
 11
286.797999
 21
36.053868
 31
0.0
 73
     2
  0
POINT
  8
DEFPOINTS
  6
BYBLOCK
 62
     0
 10
285.912002
 20
36.503868
 30
0.0
  0
POINT
  8
DEFPOINTS
  6
BYBLOCK
 62
     0
 10
285.912002
 20
35.603868
 30
0.0
  0
POINT
  8
DEFPOINTS
  6
BYBLOCK
 62
     0
 10
286.872999
 20
35.603868
 30
0.0
  0
ENDBLK
  8
0
  0
BLOCK
  8
0
  2
*D4
 70
    65
 10
0.0
 20
0.0
 30
0.0
  3
*D
  0
LINE
  8
0
  6
BYBLOCK
 62
     0
 10
286.277002
 20
36.153868
 30
0.0
 11
286.54811
 21
36.153868
 31
0.0
  0
LINE
  8
0
  6
BYBLOCK
 62
     0
 10
286.277002
 20
35.853868
 30
0.0
 11
286.54811
 21
35.853868
 31
0.0
  0
LINE
  8
0
  6
BYBLOCK
 62
     0
 10
286.53311
 20
36.303868
 30
0.0
 11
286.53311
 21
36.453868
 31
0.0
  0
LINE
  8
0
  6
BYBLOCK
 62
     0
 10
286.53311
 20
35.703868
 30
0.0
 11
286.53311
 21
35.553868
 31
0.0
  0
SOLID
  8
0
  6
BYBLOCK
 62
     0
 10
286.50811
 20
36.303868
 30
0.0
 11
286.55811
 21
36.303868
 31
0.0
 12
286.53311
 22
36.153868
 32
0.0
 13
286.53311
 23
36.153868
 33
0.0
  0
SOLID
  8
0
  6
BYBLOCK
 62
     0
 10
286.50811
 20
35.703868
 30
0.0
 11
286.55811
 21
35.703868
 31
0.0
 12
286.53311
 22
35.853868
 32
0.0
 13
286.53311
 23
35.853868
 33
0.0
  0
LINE
  8
0
  6
BYBLOCK
 62
     0
 10
286.53311
 20
36.153868
 30
0.0
 11
286.53311
 21
35.853868
 31
0.0
  0
TEXT
  8
0
  6
BYBLOCK
 62
     0
 10
286.49561
 20
35.878868
 30
0.0
 40
0.075
  1
0.30
 50
90.0
  7
ROMANC
 72
     1
 11
286.45811
 21
36.003868
 31
0.0
 73
     2
  0
POINT
  8
DEFPOINTS
  6
BYBLOCK
 62
     0
 10
286.262002
 20
36.153868
 30
0.0
  0
POINT
  8
DEFPOINTS
  6
BYBLOCK
 62
     0
 10
286.262002
 20
35.853868
 30
0.0
  0
POINT
  8
DEFPOINTS
  6
BYBLOCK
 62
     0
 10
286.53311
 20
35.853868
 30
0.0
  0
ENDBLK
  8
0
  0
BLOCK
  8
0
  2
*D5
 70
    65
 10
0.0
 20
0.0
 30
0.0
  3
*D
  0
LINE
  8
0
  6
BYBLOCK
 62
     0
 10
286.277002
 20
35.853868
 30
0.0
 11
286.54811
 21
35.853868
 31
0.0
  0
LINE
  8
0
  6
BYBLOCK
 62
     0
 10
285.929843
 20
35.603911
 30
0.0
 11
286.54811
 21
35.603911
 31
0.0
  0
LINE
  8
0
  6
BYBLOCK
 62
     0
 10
286.53311
 20
36.003868
 30
0.0
 11
286.53311
 21
36.153868
 31
0.0
  0
LINE
  8
0
  6
BYBLOCK
 62
     0
 10
286.53311
 20
35.453911
 30
0.0
 11
286.53311
 21
35.303911
 31
0.0
  0
SOLID
  8
0
  6
BYBLOCK
 62
     0
 10
286.50811
 20
36.003868
 30
0.0
 11
286.55811
 21
36.003868
 31
0.0
 12
286.53311
 22
35.853868
 32
0.0
 13
286.53311
 23
35.853868
 33
0.0
  0
SOLID
  8
0
  6
BYBLOCK
 62
     0
 10
286.50811
 20
35.453911
 30
0.0
 11
286.55811
 21
35.453911
 31
0.0
 12
286.53311
 22
35.603911
 32
0.0
 13
286.53311
 23
35.603911
 33
0.0
  0
LINE
  8
0
  6
BYBLOCK
 62
     0
 10
286.53311
 20
35.853868
 30
0.0
 11
286.53311
 21
35.603911
 31
0.0
  0
TEXT
  8
0
  6
BYBLOCK
 62
     0
 10
286.49561
 20
35.603889
 30
0.0
 40
0.075
  1
0.25
 50
90.0
  7
ROMANC
 72
     1
 11
286.45811
 21
35.728889
 31
0.0
 73
     2
  0
POINT
  8
DEFPOINTS
  6
BYBLOCK
 62
     0
 10
286.262002
 20
35.853868
 30
0.0
  0
POINT
  8
DEFPOINTS
  6
BYBLOCK
 62
     0
 10
285.914843
 20
35.603911
 30
0.0
  0
POINT
  8
DEFPOINTS
  6
BYBLOCK
 62
     0
 10
286.53311
 20
35.603911
 30
0.0
  0
ENDBLK
  8
0
  0
BLOCK
  8
0
  2
*D6
 70
    65
 10
0.0
 20
0.0
 30
0.0
  3
*D
  0
LINE
  8
0
  6
BYBLOCK
 62
     0
 10
284.510741
 20
35.127279
 30
0.0
 11
284.510741
 21
34.454297
 31
0.0
  0
LINE
  8
0
  6
BYBLOCK
 62
     0
 10
285.310741
 20
35.127279
 30
0.0
 11
285.310741
 21
34.454297
 31
0.0
  0
LINE
  8
0
  6
BYBLOCK
 62
     0
 10
284.660741
 20
34.469297
 30
0.0
 11
285.160741
 21
34.469297
 31
0.0
  0
SOLID
  8
0
  6
BYBLOCK
 62
     0
 10
284.660741
 20
34.494297
 30
0.0
 11
284.660741
 21
34.444297
 31
0.0
 12
284.510741
 22
34.469297
 32
0.0
 13
284.510741
 23
34.469297
 33
0.0
  0
SOLID
  8
0
  6
BYBLOCK
 62
     0
 10
285.160741
 20
34.494297
 30
0.0
 11
285.160741
 21
34.444297
 31
0.0
 12
285.310741
 22
34.469297
 32
0.0
 13
285.310741
 23
34.469297
 33
0.0
  0
TEXT
  8
0
  6
BYBLOCK
 62
     0
 10
284.785741
 20
34.506797
 30
0.0
 40
0.075
  1
0.80
  7
ROMANC
 72
     1
 11
284.910741
 21
34.544297
 31
0.0
 73
     2
  0
POINT
  8
DEFPOINTS
  6
BYBLOCK
 62
     0
 10
284.510741
 20
35.142279
 30
0.0
  0
POINT
  8
DEFPOINTS
  6
BYBLOCK
 62
     0
 10
285.310741
 20
35.142279
 30
0.0
  0
POINT
  8
DEFPOINTS
  6
BYBLOCK
 62
     0
 10
285.310741
 20
34.469297
 30
0.0
  0
ENDBLK
  8
0
  0
BLOCK
  8
0
  2
*D7
 70
    65
 10
0.0
 20
0.0
 30
0.0
  3
*D
  0
LINE
  8
0
  6
BYBLOCK
 62
     0
 10
284.510741
 20
35.127279
 30
0.0
 11
284.510741
 21
33.963671
 31
0.0
  0
LINE
  8
0
  6
BYBLOCK
 62
     0
 10
286.010741
 20
35.127279
 30
0.0
 11
286.010741
 21
33.963671
 31
0.0
  0
LINE
  8
0
  6
BYBLOCK
 62
     0
 10
284.660741
 20
33.978671
 30
0.0
 11
285.860741
 21
33.978671
 31
0.0
  0
SOLID
  8
0
  6
BYBLOCK
 62
     0
 10
284.660741
 20
34.003671
 30
0.0
 11
284.660741
 21
33.953671
 31
0.0
 12
284.510741
 22
33.978671
 32
0.0
 13
284.510741
 23
33.978671
 33
0.0
  0
SOLID
  8
0
  6
BYBLOCK
 62
     0
 10
285.860741
 20
34.003671
 30
0.0
 11
285.860741
 21
33.953671
 31
0.0
 12
286.010741
 22
33.978671
 32
0.0
 13
286.010741
 23
33.978671
 33
0.0
  0
TEXT
  8
0
  6
BYBLOCK
 62
     0
 10
285.130384
 20
34.016171
 30
0.0
 40
0.075
  1
1.50
  7
ROMANC
 72
     1
 11
285.260741
 21
34.053671
 31
0.0
 73
     2
  0
POINT
  8
DEFPOINTS
  6
BYBLOCK
 62
     0
 10
284.510741
 20
35.142279
 30
0.0
  0
POINT
  8
DEFPOINTS
  6
BYBLOCK
 62
     0
 10
286.010741
 20
35.142279
 30
0.0
  0
POINT
  8
DEFPOINTS
  6
BYBLOCK
 62
     0
 10
286.010741
 20
33.978671
 30
0.0
  0
ENDBLK
  8
0
  0
BLOCK
  8
0
  2
*D8
 70
    65
 10
0.0
 20
0.0
 30
0.0
  3
*D
  0
LINE
  8
0
  6
BYBLOCK
 62
     0
 10
285.275741
 20
37.042279
 30
0.0
 11
287.287162
 21
37.042279
 31
0.0
  0
LINE
  8
0
  6
BYBLOCK
 62
     0
 10
284.913125
 20
34.74201
 30
0.0
 11
287.287162
 21
34.74201
 31
0.0
  0
LINE
  8
0
  6
BYBLOCK
 62
     0
 10
287.272162
 20
36.892279
 30
0.0
 11
287.272162
 21
34.89201
 31
0.0
  0
SOLID
  8
0
  6
BYBLOCK
 62
     0
 10
287.247162
 20
36.892279
 30
0.0
 11
287.297162
 21
36.892279
 31
0.0
 12
287.272162
 22
37.042279
 32
0.0
 13
287.272162
 23
37.042279
 33
0.0
  0
SOLID
  8
0
  6
BYBLOCK
 62
     0
 10
287.247162
 20
34.89201
 30
0.0
 11
287.297162
 21
34.89201
 31
0.0
 12
287.272162
 22
34.74201
 32
0.0
 13
287.272162
 23
34.74201
 33
0.0
  0
TEXT
  8
0
  6
BYBLOCK
 62
     0
 10
287.234662
 20
35.767145
 30
0.0
 40
0.075
  1
2.30
 50
90.0
  7
ROMANC
 72
     1
 11
287.197162
 21
35.892145
 31
0.0
 73
     2
  0
POINT
  8
DEFPOINTS
  6
BYBLOCK
 62
     0
 10
285.260741
 20
37.042279
 30
0.0
  0
POINT
  8
DEFPOINTS
  6
BYBLOCK
 62
     0
 10
284.898125
 20
34.74201
 30
0.0
  0
POINT
  8
DEFPOINTS
  6
BYBLOCK
 62
     0
 10
287.272162
 20
34.74201
 30
0.0
  0
ENDBLK
  8
0
  0
BLOCK
  8
0
  2
*D9
 70
    65
 10
0.0
 20
0.0
 30
0.0
  3
*D
  0
LINE
  8
0
  6
BYBLOCK
 62
     0
 10
285.275741
 20
37.042279
 30
0.0
 11
286.585273
 21
37.042279
 31
0.0
  0
LINE
  8
0
  6
BYBLOCK
 62
     0
 10
286.025741
 20
36.742279
 30
0.0
 11
286.585273
 21
36.742279
 31
0.0
  0
LINE
  8
0
  6
BYBLOCK
 62
     0
 10
286.570273
 20
37.192279
 30
0.0
 11
286.570273
 21
37.342279
 31
0.0
  0
LINE
  8
0
  6
BYBLOCK
 62
     0
 10
286.570273
 20
36.592279
 30
0.0
 11
286.570273
 21
36.442279
 31
0.0
  0
SOLID
  8
0
  6
BYBLOCK
 62
     0
 10
286.545273
 20
37.192279
 30
0.0
 11
286.595273
 21
37.192279
 31
0.0
 12
286.570273
 22
37.042279
 32
0.0
 13
286.570273
 23
37.042279
 33
0.0
  0
SOLID
  8
0
  6
BYBLOCK
 62
     0
 10
286.545273
 20
36.592279
 30
0.0
 11
286.595273
 21
36.592279
 31
0.0
 12
286.570273
 22
36.742279
 32
0.0
 13
286.570273
 23
36.742279
 33
0.0
  0
LINE
  8
0
  6
BYBLOCK
 62
     0
 10
286.570273
 20
37.042279
 30
0.0
 11
286.570273
 21
36.742279
 31
0.0
  0
TEXT
  8
0
  6
BYBLOCK
 62
     0
 10
286.532773
 20
36.767279
 30
0.0
 40
0.075
  1
0.30
 50
90.0
  7
ROMANC
 72
     1
 11
286.495273
 21
36.892279
 31
0.0
 73
     2
  0
POINT
  8
DEFPOINTS
  6
BYBLOCK
 62
     0
 10
285.260741
 20
37.042279
 30
0.0
  0
POINT
  8
DEFPOINTS
  6
BYBLOCK
 62
     0
 10
286.010741
 20
36.742279
 30
0.0
  0
POINT
  8
DEFPOINTS
  6
BYBLOCK
 62
     0
 10
286.570273
 20
36.742279
 30
0.0
  0
ENDBLK
  8
0
  0
BLOCK
  8
0
  2
*D10
 70
    65
 10
0.0
 20
0.0
 30
0.0
  3
*D
  0
LINE
  8
0
  6
BYBLOCK
 62
     0
 10
286.025741
 20
36.742279
 30
0.0
 11
286.585273
 21
36.742279
 31
0.0
  0
LINE
  8
0
  6
BYBLOCK
 62
     0
 10
286.025741
 20
35.142279
 30
0.0
 11
286.585273
 21
35.142279
 31
0.0
  0
LINE
  8
0
  6
BYBLOCK
 62
     0
 10
286.570273
 20
36.592279
 30
0.0
 11
286.570273
 21
35.292279
 31
0.0
  0
SOLID
  8
0
  6
BYBLOCK
 62
     0
 10
286.545273
 20
36.592279
 30
0.0
 11
286.595273
 21
36.592279
 31
0.0
 12
286.570273
 22
36.742279
 32
0.0
 13
286.570273
 23
36.742279
 33
0.0
  0
SOLID
  8
0
  6
BYBLOCK
 62
     0
 10
286.545273
 20
35.292279
 30
0.0
 11
286.595273
 21
35.292279
 31
0.0
 12
286.570273
 22
35.142279
 32
0.0
 13
286.570273
 23
35.142279
 33
0.0
  0
TEXT
  8
0
  6
BYBLOCK
 62
     0
 10
286.532773
 20
35.811922
 30
0.0
 40
0.075
  1
1.60
 50
90.0
  7
ROMANC
 72
     1
 11
286.495273
 21
35.942279
 31
0.0
 73
     2
  0
POINT
  8
DEFPOINTS
  6
BYBLOCK
 62
     0
 10
286.010741
 20
36.742279
 30
0.0
  0
POINT
  8
DEFPOINTS
  6
BYBLOCK
 62
     0
 10
286.010741
 20
35.142279
 30
0.0
  0
POINT
  8
DEFPOINTS
  6
BYBLOCK
 62
     0
 10
286.570273
 20
35.142279
 30
0.0
  0
ENDBLK
  8
0
  0
BLOCK
  8
0
  2
*D11
 70
    65
 10
0.0
 20
0.0
 30
0.0
  3
*D
  0
LINE
  8
0
  6
BYBLOCK
 62
     0
 10
286.025741
 20
35.142279
 30
0.0
 11
286.585273
 21
35.142279
 31
0.0
  0
LINE
  8
0
  6
BYBLOCK
 62
     0
 10
284.964735
 20
34.752326
 30
0.0
 11
286.585273
 21
34.752326
 31
0.0
  0
LINE
  8
0
  6
BYBLOCK
 62
     0
 10
286.570273
 20
35.292279
 30
0.0
 11
286.570273
 21
35.442279
 31
0.0
  0
LINE
  8
0
  6
BYBLOCK
 62
     0
 10
286.570273
 20
34.602326
 30
0.0
 11
286.570273
 21
34.452326
 31
0.0
  0
SOLID
  8
0
  6
BYBLOCK
 62
     0
 10
286.545273
 20
35.292279
 30
0.0
 11
286.595273
 21
35.292279
 31
0.0
 12
286.570273
 22
35.142279
 32
0.0
 13
286.570273
 23
35.142279
 33
0.0
  0
SOLID
  8
0
  6
BYBLOCK
 62
     0
 10
286.545273
 20
34.602326
 30
0.0
 11
286.595273
 21
34.602326
 31
0.0
 12
286.570273
 22
34.752326
 32
0.0
 13
286.570273
 23
34.752326
 33
0.0
  0
LINE
  8
0
  6
BYBLOCK
 62
     0
 10
286.570273
 20
35.142279
 30
0.0
 11
286.570273
 21
34.752326
 31
0.0
  0
TEXT
  8
0
  6
BYBLOCK
 62
     0
 10
286.532773
 20
34.856231
 30
0.0
 40
0.075
  1
0.4
 50
90.0
  7
ROMANC
 72
     1
 11
286.495273
 21
34.947303
 31
0.0
 73
     2
  0
POINT
  8
DEFPOINTS
  6
BYBLOCK
 62
     0
 10
286.010741
 20
35.142279
 30
0.0
  0
POINT
  8
DEFPOINTS
  6
BYBLOCK
 62
     0
 10
284.949735
 20
34.752326
 30
0.0
  0
POINT
  8
DEFPOINTS
  6
BYBLOCK
 62
     0
 10
286.570273
 20
34.752326
 30
0.0
  0
ENDBLK
  8
0
  0
ENDSEC
  0
SECTION
  2
ENTITIES
  0
POLYLINE
  8
0
 66
     1
 10
0.0
 20
0.0
 30
0.0
  0
VERTEX
  8
0
 10
108.040631
 20
-16.548467
 30
0.0
 42
0.063415
  0
SEQEND
  8
0
  0
POLYLINE
  8
0
 66
     1
 10
0.0
 20
0.0
 30
0.0
  0
VERTEX
  8
0
 10
86.286488
 20
-15.036857
 30
0.0
 42
0.22708
  0
SEQEND
  8
0
  0
POLYLINE
  8
0
 66
     1
 10
0.0
 20
0.0
 30
0.0
  0
VERTEX
  8
0
 10
72.351426
 20
-14.976331
 30
0.0
 42
0.089446
  0
SEQEND
  8
0
  0
POLYLINE
  8
0
 66
     1
 10
0.0
 20
0.0
 30
0.0
  0
VERTEX
  8
0
 10
97.210524
 20
16.938509
 30
0.0
 42
0.05817
  0
SEQEND
  8
0
  0
POLYLINE
  8
0
 66
     1
 10
0.0
 20
0.0
 30
0.0
  0
VERTEX
  8
0
 10
121.196188
 20
17.602271
 30
0.0
 42
0.156162
  0
SEQEND
  8
0
  0
POLYLINE
  8
0
 66
     1
 10
0.0
 20
0.0
 30
0.0
  0
VERTEX
  8
0
 10
119.340696
 20
34.532686
 30
0.0
 42
0.283046
  0
SEQEND
  8
0
  0
POLYLINE
  8
0
 66
     1
 10
0.0
 20
0.0
 30
0.0
  0
VERTEX
  8
0
 10
157.359637
 20
32.54887
 30
0.0
 42
0.269827
  0
SEQEND
  8
0
  0
POLYLINE
  8
0
 66
     1
 10
0.0
 20
0.0
 30
0.0
  0
VERTEX
  8
0
 10
156.169702
 20
18.299763
 30
0.0
 42
0.066056
  0
SEQEND
  8
0
  0
POLYLINE
  8
0
 66
     1
 10
0.0
 20
0.0
 30
0.0
  0
VERTEX
  8
0
 10
168.512554
 20
1.430566
 30
0.0
 42
0.148501
  0
SEQEND
  8
0
  0
POLYLINE
  8
0
 66
     1
 10
0.0
 20
0.0
 30
0.0
  0
VERTEX
  8
0
 10
168.689549
 20
33.579487
 30
0.0
 42
0.08626
  0
SEQEND
  8
0
  0
POLYLINE
  8
0
 66
     1
 10
0.0
 20
0.0
 30
0.0
  0
VERTEX
  8
0
 10
180.209617
 20
34.197499
 30
0.0
 42
0.059446
  0
SEQEND
  8
0
  0
POLYLINE
  8
0
 66
     1
 10
0.0
 20
0.0
 30
0.0
  0
VERTEX
  8
0
 10
168.213495
 20
14.734069
 30
0.0
 42
0.06661
  0
SEQEND
  8
0
  0
POLYLINE
  8
0
 66
     1
 10
0.0
 20
0.0
 30
0.0
  0
VERTEX
  8
0
 10
180.09759
 20
16.643931
 30
0.0
 42
0.165716
  0
SEQEND
  8
0
  0
POLYLINE
  8
0
 66
     1
 10
0.0
 20
0.0
 30
0.0
  0
VERTEX
  8
0
 10
180.349774
 20
-12.199421
 30
0.0
 42
0.098491
  0
SEQEND
  8
0
  0
POLYLINE
  8
0
 66
     1
 10
0.0
 20
0.0
 30
0.0
  0
VERTEX
  8
0
 10
194.593929
 20
-14.402211
 30
0.0
 42
0.098491
  0
SEQEND
  8
0
  0
POLYLINE
  8
0
 66
     1
 10
0.0
 20
0.0
 30
0.0
  0
VERTEX
  8
0
 10
192.091391
 20
16.821986
 30
0.0
 42
0.129253
  0
SEQEND
  8
0
  0
LINE
  8
0
 10
291.895795
 20
29.897444
 30
0.0
 11
291.895795
 21
44.747444
 31
0.0
  0
TEXT
  8
0
 10
283.887846
 20
40.56142
 30
0.0
 40
0.3
  1
P = 68.8 dm
  7
ROMANC
  0
LINE
  8
0
 10
281.395795
 20
44.747444
 30
0.0
 11
281.395795
 21
29.897444
 31
0.0
  0
LINE
  8
0
 10
281.395795
 20
29.897444
 30
0.0
 11
291.895795
 21
29.897444
 31
0.0
  0
LINE
  8
0
 10
291.895795
 20
44.747444
 30
0.0
 11
281.395795
 21
44.747444
 31
0.0
  0
TEXT
  8
0
 10
287.122271
 20
41.564915
 30
0.0
 40
0.1
  1
2
  7
ROMANC
  0
TEXT
  8
0
 10
283.925768
 20
41.857589
 30
0.0
 40
0.3
  1
ESCALA  1:50
  7
ROMANC
  0
TEXT
  8
0
 10
283.925768
 20
42.343303
 30
0.0
 40
0.3
  1
TIPUS   NT300
  7
ROMANC
  0
TEXT
  8
0
 10
283.938862
 20
41.258999
 30
0.0
 40
0.3
  1
S=  300 dm
  7
ROMANC
  0
POLYLINE
  8
0
 66
     1
 10
0.0
 20
0.0
 30
0.0
  0
VERTEX
  8
0
 10
285.562002
 20
36.153868
 30
0.0
 42
0.113017
  0
SEQEND
  8
0
  0
POLYLINE
  8
0
 66
     1
 10
0.0
 20
0.0
 30
0.0
  0
VERTEX
  8
0
 10
285.562002
 20
36.153868
 30
0.0
 42
0.098491
  0
SEQEND
  8
0
  0
POLYLINE
  8
0
 66
     1
 10
0.0
 20
0.0
 30
0.0
  0
VERTEX
  8
0
 10
284.510741
 20
36.742279
 30
0.0
 42
0.20329
  0
SEQEND
  8
0
  0
LINE
  8
0
 10
285.300613
 20
35.152279
 30
0.0
 11
286.000741
 21
35.152279
 31
0.0
  0
LINE
  8
0
 10
286.000741
 20
35.152279
 30
0.0
 11
286.000741
 21
36.742279
 31
0.0
  0
ARC
  8
0
 10
285.876268
 20
36.742279
 30
0.0
 40
0.124473
 50
0.0
 51
45.964355
  0
ARC
  8
0
 10
285.585613
 20
36.441672
 30
0.0
 40
0.542618
 50
45.964355
 51
68.173914
  0
ARC
  8
0
 10
285.389999
 20
35.953246
 30
0.0
 40
1.068759
 50
68.173914
 51
80.580846
  0
ARC
  8
0
 10
285.260741
 20
35.174081
 30
0.0
 40
1.858573
 50
80.580846
 51
90.0
  0
ARC
  8
0
 10
285.260741
 20
35.174081
 30
0.0
 40
1.858573
 50
90.0
 51
99.419154
  0
ARC
  8
0
 10
285.131484
 20
35.953246
 30
0.0
 40
1.068759
 50
99.419154
 51
111.826086
  0
ARC
  8
0
 10
284.935869
 20
36.441672
 30
0.0
 40
0.542618
 50
111.826086
 51
134.035645
  0
ARC
  8
0
 10
284.645214
 20
36.742279
 30
0.0
 40
0.124473
 50
134.035645
 51
180.0
  0
LINE
  8
0
 10
284.520741
 20
36.742279
 30
0.0
 11
284.520741
 21
35.142279
 31
0.0
  0
ARC
  8
0
 10
284.910741
 20
35.142279
 30
0.0
 40
0.39
 50
180.0
 51
202.5
  0
ARC
  8
0
 10
284.910741
 20
35.142279
 30
0.0
 40
0.39
 50
202.5
 51
225.0
  0
ARC
  8
0
 10
284.910741
 20
35.142279
 30
0.0
 40
0.39
 50
225.0
 51
247.5
  0
ARC
  8
0
 10
284.910741
 20
35.142279
 30
0.0
 40
0.39
 50
247.5
 51
270.0
  0
ARC
  8
0
 10
284.910741
 20
35.142279
 30
0.0
 40
0.39
 50
270.0
 51
292.5
  0
ARC
  8
0
 10
284.910741
 20
35.142279
 30
0.0
 40
0.39
 50
292.5
 51
315.0
  0
ARC
  8
0
 10
284.910741
 20
35.142279
 30
0.0
 40
0.39
 50
315.0
 51
337.5
  0
ARC
  8
0
 10
284.910741
 20
35.142279
 30
0.0
 40
0.39
 50
337.5
 51
1.469284
  0
LINE
  8
0
 10
285.320619
 20
35.132279
 30
0.0
 11
286.020741
 21
35.132279
 31
0.0
  0
LINE
  8
0
 10
286.020741
 20
35.132279
 30
0.0
 11
286.020741
 21
36.742279
 31
0.0
  0
ARC
  8
0
 10
285.876268
 20
36.742279
 30
0.0
 40
0.144473
 50
360.0
 51
45.964355
  0
ARC
  8
0
 10
285.585613
 20
36.441672
 30
0.0
 40
0.562618
 50
45.964355
 51
68.173914
  0
ARC
  8
0
 10
285.389999
 20
35.953246
 30
0.0
 40
1.088759
 50
68.173914
 51
80.580846
  0
ARC
  8
0
 10
285.260741
 20
35.174081
 30
0.0
 40
1.878573
 50
80.580846
 51
90.0
  0
ARC
  8
0
 10
285.260741
 20
35.174081
 30
0.0
 40
1.878573
 50
90.0
 51
99.419154
  0
ARC
  8
0
 10
285.131484
 20
35.953246
 30
0.0
 40
1.088759
 50
99.419154
 51
111.826086
  0
ARC
  8
0
 10
284.935869
 20
36.441672
 30
0.0
 40
0.562618
 50
111.826086
 51
134.035645
  0
ARC
  8
0
 10
284.645214
 20
36.742279
 30
0.0
 40
0.144473
 50
134.035645
 51
180.0
  0
LINE
  8
0
 10
284.500741
 20
36.742279
 30
0.0
 11
284.500741
 21
35.142279
 31
0.0
  0
ARC
  8
0
 10
284.910741
 20
35.142279
 30
0.0
 40
0.41
 50
180.0
 51
202.5
  0
ARC
  8
0
 10
284.910741
 20
35.142279
 30
0.0
 40
0.41
 50
202.5
 51
225.0
  0
ARC
  8
0
 10
284.910741
 20
35.142279
 30
0.0
 40
0.41
 50
225.0
 51
247.5
  0
ARC
  8
0
 10
284.910741
 20
35.142279
 30
0.0
 40
0.41
 50
247.5
 51
270.0
  0
ARC
  8
0
 10
284.910741
 20
35.142279
 30
0.0
 40
0.41
 50
270.0
 51
292.5
  0
ARC
  8
0
 10
284.910741
 20
35.142279
 30
0.0
 40
0.41
 50
292.5
 51
315.0
  0
ARC
  8
0
 10
284.910741
 20
35.142279
 30
0.0
 40
0.41
 50
315.0
 51
337.5
  0
ARC
  8
0
 10
284.910741
 20
35.142279
 30
0.0
 40
0.41
 50
337.5
 51
358.602403
  0
LINE
  8
0
 10
285.310741
 20
35.142279
 30
0.0
 11
286.010741
 21
35.142279
 31
0.0
  0
LINE
  8
0
 10
286.010741
 20
35.142279
 30
0.0
 11
286.010741
 21
36.742279
 31
0.0
  0
ARC
  8
0
 10
285.876268
 20
36.742279
 30
0.0
 40
0.134473
 50
0.0
 51
45.964355
  0
ARC
  8
0
 10
285.585613
 20
36.441672
 30
0.0
 40
0.552618
 50
45.964355
 51
68.173914
  0
ARC
  8
0
 10
285.389999
 20
35.953246
 30
0.0
 40
1.078759
 50
68.173914
 51
80.580846
  0
ARC
  8
0
 10
285.260741
 20
35.174081
 30
0.0
 40
1.868573
 50
80.580846
 51
90.0
  0
ARC
  8
0
 10
285.260741
 20
35.174081
 30
0.0
 40
1.868573
 50
90.0
 51
99.419154
  0
ARC
  8
0
 10
285.131484
 20
35.953246
 30
0.0
 40
1.078759
 50
99.419154
 51
111.826086
  0
ARC
  8
0
 10
284.935869
 20
36.441672
 30
0.0
 40
0.552618
 50
111.826086
 51
134.035645
  0
ARC
  8
0
 10
284.645214
 20
36.742279
 30
0.0
 40
0.134473
 50
134.035645
 51
180.0
  0
LINE
  8
0
 10
284.510741
 20
36.742279
 30
0.0
 11
284.510741
 21
35.142279
 31
0.0
  0
ARC
  8
0
 10
284.910741
 20
35.142279
 30
0.0
 40
0.4
 50
180.0
 51
202.5
  0
ARC
  8
0
 10
284.910741
 20
35.142279
 30
0.0
 40
0.4
 50
202.5
 51
225.0
  0
ARC
  8
0
 10
284.910741
 20
35.142279
 30
0.0
 40
0.4
 50
225.0
 51
247.5
  0
ARC
  8
0
 10
284.910741
 20
35.142279
 30
0.0
 40
0.4
 50
247.5
 51
270.0
  0
ARC
  8
0
 10
284.910741
 20
35.142279
 30
0.0
 40
0.4
 50
270.0
 51
292.5
  0
ARC
  8
0
 10
284.910741
 20
35.142279
 30
0.0
 40
0.4
 50
292.5
 51
315.0
  0
ARC
  8
0
 10
284.910741
 20
35.142279
 30
0.0
 40
0.4
 50
315.0
 51
337.5
  0
ARC
  8
0
 10
284.910741
 20
35.142279
 30
0.0
 40
0.4
 50
337.5
 51
0.0
  0
LINE
  8
0
  6
BYBLOCK
 62
     0
 10
286.025741
 20
35.142279
 30
0.0
 11
286.585273
 21
35.142279
 31
0.0
  0
LINE
  8
0
  6
BYBLOCK
 62
     0
 10
284.964735
 20
34.752326
 30
0.0
 11
286.585273
 21
34.752326
 31
0.0
  0
LINE
  8
0
  6
BYBLOCK
 62
     0
 10
286.570273
 20
35.292279
 30
0.0
 11
286.570273
 21
35.442279
 31
0.0
  0
LINE
  8
0
  6
BYBLOCK
 62
     0
 10
286.570273
 20
34.602326
 30
0.0
 11
286.570273
 21
34.452326
 31
0.0
  0
SOLID
  8
0
  6
BYBLOCK
 62
     0
 10
286.545273
 20
35.292279
 30
0.0
 11
286.595273
 21
35.292279
 31
0.0
 12
286.570273
 22
35.142279
 32
0.0
 13
286.570273
 23
35.142279
 33
0.0
  0
SOLID
  8
0
  6
BYBLOCK
 62
     0
 10
286.545273
 20
34.602326
 30
0.0
 11
286.595273
 21
34.602326
 31
0.0
 12
286.570273
 22
34.752326
 32
0.0
 13
286.570273
 23
34.752326
 33
0.0
  0
LINE
  8
0
  6
BYBLOCK
 62
     0
 10
286.570273
 20
35.142279
 30
0.0
 11
286.570273
 21
34.752326
 31
0.0
  0
TEXT
  8
0
  6
BYBLOCK
 62
     0
 10
286.532773
 20
34.856231
 30
0.0
 40
0.075
  1
0.4
 50
90.0
  7
ROMANC
 72
     1
 11
286.495273
 21
34.947303
 31
0.0
 73
     2
  0
POINT
  8
DEFPOINTS
  6
BYBLOCK
 62
     0
 10
286.010741
 20
35.142279
 30
0.0
  0
POINT
  8
DEFPOINTS
  6
BYBLOCK
 62
     0
 10
284.949735
 20
34.752326
 30
0.0
  0
POINT
  8
DEFPOINTS
  6
BYBLOCK
 62
     0
 10
286.570273
 20
34.752326
 30
0.0
  0
LINE
  8
0
  6
BYBLOCK
 62
     0
 10
285.275741
 20
37.042279
 30
0.0
 11
287.287162
 21
37.042279
 31
0.0
  0
LINE
  8
0
  6
BYBLOCK
 62
     0
 10
284.913125
 20
34.74201
 30
0.0
 11
287.287162
 21
34.74201
 31
0.0
  0
LINE
  8
0
  6
BYBLOCK
 62
     0
 10
287.272162
 20
36.892279
 30
0.0
 11
287.272162
 21
34.89201
 31
0.0
  0
SOLID
  8
0
  6
BYBLOCK
 62
     0
 10
287.247162
 20
36.892279
 30
0.0
 11
287.297162
 21
36.892279
 31
0.0
 12
287.272162
 22
37.042279
 32
0.0
 13
287.272162
 23
37.042279
 33
0.0
  0
SOLID
  8
0
  6
BYBLOCK
 62
     0
 10
287.247162
 20
34.89201
 30
0.0
 11
287.297162
 21
34.89201
 31
0.0
 12
287.272162
 22
34.74201
 32
0.0
 13
287.272162
 23
34.74201
 33
0.0
  0
TEXT
  8
0
  6
BYBLOCK
 62
     0
 10
287.234662
 20
35.767145
 30
0.0
 40
0.075
  1
2.30
 50
90.0
  7
ROMANC
 72
     1
 11
287.197162
 21
35.892145
 31
0.0
 73
     2
  0
POINT
  8
DEFPOINTS
  6
BYBLOCK
 62
     0
 10
285.260741
 20
37.042279
 30
0.0
  0
POINT
  8
DEFPOINTS
  6
BYBLOCK
 62
     0
 10
284.898125
 20
34.74201
 30
0.0
  0
POINT
  8
DEFPOINTS
  6
BYBLOCK
 62
     0
 10
287.272162
 20
34.74201
 30
0.0
  0
LINE
  8
0
  6
BYBLOCK
 62
     0
 10
284.510741
 20
35.127279
 30
0.0
 11
284.510741
 21
33.963671
 31
0.0
  0
LINE
  8
0
  6
BYBLOCK
 62
     0
 10
286.010741
 20
35.127279
 30
0.0
 11
286.010741
 21
33.963671
 31
0.0
  0
LINE
  8
0
  6
BYBLOCK
 62
     0
 10
284.660741
 20
33.978671
 30
0.0
 11
285.860741
 21
33.978671
 31
0.0
  0
SOLID
  8
0
  6
BYBLOCK
 62
     0
 10
284.660741
 20
34.003671
 30
0.0
 11
284.660741
 21
33.953671
 31
0.0
 12
284.510741
 22
33.978671
 32
0.0
 13
284.510741
 23
33.978671
 33
0.0
  0
SOLID
  8
0
  6
BYBLOCK
 62
     0
 10
285.860741
 20
34.003671
 30
0.0
 11
285.860741
 21
33.953671
 31
0.0
 12
286.010741
 22
33.978671
 32
0.0
 13
286.010741
 23
33.978671
 33
0.0
  0
TEXT
  8
0
  6
BYBLOCK
 62
     0
 10
285.130384
 20
34.016171
 30
0.0
 40
0.075
  1
1.50
  7
ROMANC
 72
     1
 11
285.260741
 21
34.053671
 31
0.0
 73
     2
  0
POINT
  8
DEFPOINTS
  6
BYBLOCK
 62
     0
 10
284.510741
 20
35.142279
 30
0.0
  0
POINT
  8
DEFPOINTS
  6
BYBLOCK
 62
     0
 10
286.010741
 20
35.142279
 30
0.0
  0
POINT
  8
DEFPOINTS
  6
BYBLOCK
 62
     0
 10
286.010741
 20
33.978671
 30
0.0
  0
LINE
  8
0
  6
BYBLOCK
 62
     0
 10
284.510741
 20
35.127279
 30
0.0
 11
284.510741
 21
34.454297
 31
0.0
  0
LINE
  8
0
  6
BYBLOCK
 62
     0
 10
285.310741
 20
35.127279
 30
0.0
 11
285.310741
 21
34.454297
 31
0.0
  0
LINE
  8
0
  6
BYBLOCK
 62
     0
 10
284.660741
 20
34.469297
 30
0.0
 11
285.160741
 21
34.469297
 31
0.0
  0
SOLID
  8
0
  6
BYBLOCK
 62
     0
 10
284.660741
 20
34.494297
 30
0.0
 11
284.660741
 21
34.444297
 31
0.0
 12
284.510741
 22
34.469297
 32
0.0
 13
284.510741
 23
34.469297
 33
0.0
  0
SOLID
  8
0
  6
BYBLOCK
 62
     0
 10
285.160741
 20
34.494297
 30
0.0
 11
285.160741
 21
34.444297
 31
0.0
 12
285.310741
 22
34.469297
 32
0.0
 13
285.310741
 23
34.469297
 33
0.0
  0
TEXT
  8
0
  6
BYBLOCK
 62
     0
 10
284.785741
 20
34.506797
 30
0.0
 40
0.075
  1
0.80
  7
ROMANC
 72
     1
 11
284.910741
 21
34.544297
 31
0.0
 73
     2
  0
POINT
  8
DEFPOINTS
  6
BYBLOCK
 62
     0
 10
284.510741
 20
35.142279
 30
0.0
  0
POINT
  8
DEFPOINTS
  6
BYBLOCK
 62
     0
 10
285.310741
 20
35.142279
 30
0.0
  0
POINT
  8
DEFPOINTS
  6
BYBLOCK
 62
     0
 10
285.310741
 20
34.469297
 30
0.0
  0
LINE
  8
0
  6
BYBLOCK
 62
     0
 10
285.275741
 20
37.042279
 30
0.0
 11
286.585273
 21
37.042279
 31
0.0
  0
LINE
  8
0
  6
BYBLOCK
 62
     0
 10
286.025741
 20
36.742279
 30
0.0
 11
286.585273
 21
36.742279
 31
0.0
  0
LINE
  8
0
  6
BYBLOCK
 62
     0
 10
286.570273
 20
37.192279
 30
0.0
 11
286.570273
 21
37.342279
 31
0.0
  0
LINE
  8
0
  6
BYBLOCK
 62
     0
 10
286.570273
 20
36.592279
 30
0.0
 11
286.570273
 21
36.442279
 31
0.0
  0
SOLID
  8
0
  6
BYBLOCK
 62
     0
 10
286.545273
 20
37.192279
 30
0.0
 11
286.595273
 21
37.192279
 31
0.0
 12
286.570273
 22
37.042279
 32
0.0
 13
286.570273
 23
37.042279
 33
0.0
  0
SOLID
  8
0
  6
BYBLOCK
 62
     0
 10
286.545273
 20
36.592279
 30
0.0
 11
286.595273
 21
36.592279
 31
0.0
 12
286.570273
 22
36.742279
 32
0.0
 13
286.570273
 23
36.742279
 33
0.0
  0
LINE
  8
0
  6
BYBLOCK
 62
     0
 10
286.570273
 20
37.042279
 30
0.0
 11
286.570273
 21
36.742279
 31
0.0
  0
TEXT
  8
0
  6
BYBLOCK
 62
     0
 10
286.532773
 20
36.767279
 30
0.0
 40
0.075
  1
0.30
 50
90.0
  7
ROMANC
 72
     1
 11
286.495273
 21
36.892279
 31
0.0
 73
     2
  0
POINT
  8
DEFPOINTS
  6
BYBLOCK
 62
     0
 10
285.260741
 20
37.042279
 30
0.0
  0
POINT
  8
DEFPOINTS
  6
BYBLOCK
 62
     0
 10
286.010741
 20
36.742279
 30
0.0
  0
POINT
  8
DEFPOINTS
  6
BYBLOCK
 62
     0
 10
286.570273
 20
36.742279
 30
0.0
  0
LINE
  8
0
  6
BYBLOCK
 62
     0
 10
286.025741
 20
36.742279
 30
0.0
 11
286.585273
 21
36.742279
 31
0.0
  0
LINE
  8
0
  6
BYBLOCK
 62
     0
 10
286.025741
 20
35.142279
 30
0.0
 11
286.585273
 21
35.142279
 31
0.0
  0
LINE
  8
0
  6
BYBLOCK
 62
     0
 10
286.570273
 20
36.592279
 30
0.0
 11
286.570273
 21
35.292279
 31
0.0
  0
SOLID
  8
0
  6
BYBLOCK
 62
     0
 10
286.545273
 20
36.592279
 30
0.0
 11
286.595273
 21
36.592279
 31
0.0
 12
286.570273
 22
36.742279
 32
0.0
 13
286.570273
 23
36.742279
 33
0.0
  0
SOLID
  8
0
  6
BYBLOCK
 62
     0
 10
286.545273
 20
35.292279
 30
0.0
 11
286.595273
 21
35.292279
 31
0.0
 12
286.570273
 22
35.142279
 32
0.0
 13
286.570273
 23
35.142279
 33
0.0
  0
TEXT
  8
0
  6
BYBLOCK
 62
     0
 10
286.532773
 20
35.811922
 30
0.0
 40
0.075
  1
1.60
 50
90.0
  7
ROMANC
 72
     1
 11
286.495273
 21
35.942279
 31
0.0
 73
     2
  0
POINT
  8
DEFPOINTS
  6
BYBLOCK
 62
     0
 10
286.010741
 20
36.742279
 30
0.0
  0
POINT
  8
DEFPOINTS
  6
BYBLOCK
 62
     0
 10
286.010741
 20
35.142279
 30
0.0
  0
POINT
  8
DEFPOINTS
  6
BYBLOCK
 62
     0
 10
286.570273
 20
35.142279
 30
0.0
  0
ENDSEC
  0
EOF
