  0
SECTION
  2
HEADER
  9
$ACADVER
  1
AC1009
  9
$INSBASE
 10
80.847302
 20
27.895167
 30
0.0
  9
$EXTMIN
 10
80.847302
 20
27.895167
 30
0.0
  9
$EXTMAX
 10
91.347302
 20
42.745167
 30
0.0
  9
$LIMMIN
 10
0.0
 20
0.0
  9
$LIMMAX
 10
410.0
 20
287.0
  9
$ORTHOMODE
 70
     0
  9
$REGENMODE
 70
     1
  9
$FILLMODE
 70
     1
  9
$QTEXTMODE
 70
     0
  9
$MIRRTEXT
 70
     1
  9
$DRAGMODE
 70
     2
  9
$LTSCALE
 40
25.0
  9
$OSMODE
 70
    32
  9
$ATTMODE
 70
     1
  9
$TEXTSIZE
 40
0.1
  9
$TRACEWID
 40
1.0
  9
$TEXTSTYLE
  7
ROMANC
  9
$CLAYER
  8
0
  9
$CELTYPE
  6
BYLAYER
  9
$CECOLOR
 62
   256
  9
$DIMSCALE
 40
0.0
  9
$DIMASZ
 40
0.0
  9
$DIMEXO
 40
0.1
  9
$DIMDLI
 40
7.0
  9
$DIMRND
 40
0.0
  9
$DIMDLE
 40
0.0
  9
$DIMEXE
 40
1.8
  9
$DIMTP
 40
0.0
  9
$DIMTM
 40
0.0
  9
$DIMTXT
 40
0.03
  9
$DIMCEN
 40
1.5
  9
$DIMTSZ
 40
1.0
  9
$DIMTOL
 70
     0
  9
$DIMLIM
 70
     0
  9
$DIMTIH
 70
     0
  9
$DIMTOH
 70
     0
  9
$DIMSE1
 70
     0
  9
$DIMSE2
 70
     0
  9
$DIMTAD
 70
     0
  9
$DIMZIN
 70
     0
  9
$DIMBLK
  1

  9
$DIMASO
 70
     1
  9
$DIMSHO
 70
     0
  9
$DIMPOST
  1

  9
$DIMAPOST
  1

  9
$DIMALT
 70
     0
  9
$DIMALTD
 70
     2
  9
$DIMALTF
 40
25.4
  9
$DIMLFAC
 40
1.0
  9
$DIMTOFL
 70
     1
  9
$DIMTVP
 40
0.0
  9
$DIMTIX
 70
     1
  9
$DIMSOXD
 70
     0
  9
$DIMSAH
 70
     0
  9
$DIMBLK1
  1

  9
$DIMBLK2
  1

  9
$DIMSTYLE
  2
*UNNAMED
  9
$DIMCLRD
 70
     0
  9
$DIMCLRE
 70
     0
  9
$DIMCLRT
 70
     0
  9
$DIMTFAC
 40
116.666667
  9
$DIMGAP
 40
0.09
  9
$LUNITS
 70
     2
  9
$LUPREC
 70
     2
  9
$SKETCHINC
 40
1.0
  9
$FILLETRAD
 40
0.0
  9
$AUNITS
 70
     0
  9
$AUPREC
 70
     0
  9
$MENU
  1
acad
  9
$ELEVATION
 40
0.0
  9
$PELEVATION
 40
0.0
  9
$THICKNESS
 40
0.0
  9
$LIMCHECK
 70
     0
  9
$BLIPMODE
 70
     0
  9
$CHAMFERA
 40
0.0
  9
$CHAMFERB
 40
0.0
  9
$SKPOLY
 70
     0
  9
$TDCREATE
 40
2449967.555843402
  9
$TDUPDATE
 40
2450721.569896412
  9
$TDINDWG
 40
0.0073741898
  9
$TDUSRTIMER
 40
0.0073741898
  9
$USRTIMER
 70
     1
  9
$ANGBASE
 50
0.0
  9
$ANGDIR
 70
     0
  9
$PDMODE
 70
     0
  9
$PDSIZE
 40
0.0
  9
$PLINEWID
 40
0.0
  9
$COORDS
 70
     2
  9
$SPLFRAME
 70
     0
  9
$SPLINETYPE
 70
     6
  9
$SPLINESEGS
 70
     8
  9
$ATTDIA
 70
     0
  9
$ATTREQ
 70
     1
  9
$HANDLING
 70
     0
  9
$HANDSEED
  5
0
  9
$SURFTAB1
 70
     6
  9
$SURFTAB2
 70
     6
  9
$SURFTYPE
 70
     6
  9
$SURFU
 70
     6
  9
$SURFV
 70
     6
  9
$UCSNAME
  2

  9
$UCSORG
 10
0.0
 20
0.0
 30
0.0
  9
$UCSXDIR
 10
1.0
 20
0.0
 30
0.0
  9
$UCSYDIR
 10
0.0
 20
1.0
 30
0.0
  9
$PUCSNAME
  2

  9
$PUCSORG
 10
0.0
 20
0.0
 30
0.0
  9
$PUCSXDIR
 10
1.0
 20
0.0
 30
0.0
  9
$PUCSYDIR
 10
0.0
 20
1.0
 30
0.0
  9
$USERI1
 70
     0
  9
$USERI2
 70
     0
  9
$USERI3
 70
     0
  9
$USERI4
 70
     0
  9
$USERI5
 70
     0
  9
$USERR1
 40
0.0
  9
$USERR2
 40
0.0
  9
$USERR3
 40
0.0
  9
$USERR4
 40
0.0
  9
$USERR5
 40
0.0
  9
$WORLDVIEW
 70
     1
  9
$SHADEDGE
 70
     3
  9
$SHADEDIF
 70
    70
  9
$TILEMODE
 70
     1
  9
$MAXACTVP
 70
    16
  9
$PINSBASE
 10
0.0
 20
0.0
 30
0.0
  9
$PLIMCHECK
 70
     0
  9
$PEXTMIN
 10
1.000000E+20
 20
1.000000E+20
 30
1.000000E+20
  9
$PEXTMAX
 10
-1.000000E+20
 20
-1.000000E+20
 30
-1.000000E+20
  9
$PLIMMIN
 10
0.0
 20
0.0
  9
$PLIMMAX
 10
12.0
 20
9.0
  9
$UNITMODE
 70
     0
  9
$VISRETAIN
 70
     0
  9
$PLINEGEN
 70
     0
  9
$PSLTSCALE
 70
     0
  9
$TREEDEPTH
 70
  3020
  9
$DWGCODEPAGE
  3
iso8859-1
  0
ENDSEC
  0
SECTION
  2
TABLES
  0
TABLE
  2
VPORT
 70
     2
  0
VPORT
  2
*ACTIVE
 70
     0
 10
0.0
 20
0.0
 11
1.0
 21
1.0
 12
92.809153
 22
35.320167
 13
0.0
 23
0.0
 14
1.0
 24
1.0
 15
10.0
 25
10.0
 16
0.0
 26
0.0
 36
1.0
 17
0.0
 27
0.0
 37
0.0
 40
14.85
 41
1.611024
 42
50.0
 43
0.0
 44
0.0
 50
0.0
 51
0.0
 71
     0
 72
   100
 73
     1
 74
     0
 75
     0
 76
     0
 77
     0
 78
     1
  0
ENDTAB
  0
TABLE
  2
LTYPE
 70
     1
  0
LTYPE
  2
CONTINUOUS
 70
    64
  3
Solid line
 72
    65
 73
     0
 40
0.0
  0
ENDTAB
  0
TABLE
  2
LAYER
 70
     2
  0
LAYER
  2
0
 70
    64
 62
     7
  6
CONTINUOUS
  0
LAYER
  2
DEFPOINTS
 70
    64
 62
     7
  6
CONTINUOUS
  0
ENDTAB
  0
TABLE
  2
STYLE
 70
     2
  0
STYLE
  2
STANDARD
 70
     0
 40
0.0
 41
1.0
 50
0.0
 71
     0
 42
0.1
  3
txt
  4

  0
STYLE
  2
ROMANC
 70
    64
 40
0.0
 41
1.0
 50
0.0
 71
     0
 42
0.1
  3
romanc
  4

  0
ENDTAB
  0
TABLE
  2
VIEW
 70
     0
  0
ENDTAB
  0
TABLE
  2
UCS
 70
     0
  0
ENDTAB
  0
TABLE
  2
APPID
 70
     1
  0
APPID
  2
ACAD
 70
    64
  0
ENDTAB
  0
TABLE
  2
DIMSTYLE
 70
     0
  0
ENDTAB
  0
ENDSEC
  0
SECTION
  2
BLOCKS
  0
BLOCK
  8
0
  2
*D0
 70
    65
 10
0.0
 20
0.0
 30
0.0
  3
*D
  0
LINE
  8
0
  6
BYBLOCK
 62
     0
 10
85.744019
 20
32.262715
 30
0.0
 11
85.744019
 21
30.416191
 31
0.0
  0
LINE
  8
0
  6
BYBLOCK
 62
     0
 10
85.094035
 20
32.262715
 30
0.0
 11
85.094035
 21
30.416191
 31
0.0
  0
LINE
  8
0
  6
BYBLOCK
 62
     0
 10
85.744019
 20
32.216191
 30
0.0
 11
87.744019
 21
32.216191
 31
0.0
  0
LINE
  8
0
  6
BYBLOCK
 62
     0
 10
85.094035
 20
32.216191
 30
0.0
 11
83.094035
 21
32.216191
 31
0.0
  0
LINE
  8
0
  6
BYBLOCK
 62
     0
 10
84.744019
 20
31.216191
 30
0.0
 11
86.744019
 21
33.216191
 31
0.0
  0
LINE
  8
0
  6
BYBLOCK
 62
     0
 10
84.094035
 20
31.216191
 30
0.0
 11
86.094035
 21
33.216191
 31
0.0
  0
LINE
  8
0
  6
BYBLOCK
 62
     0
 10
85.744019
 20
32.216191
 30
0.0
 11
85.094035
 21
32.216191
 31
0.0
  0
TEXT
  8
0
  6
BYBLOCK
 62
     0
 10
85.369027
 20
32.201191
 30
0.0
 40
0.03
  1
0.65
  7
ROMANC
 72
     1
 11
85.419027
 21
32.216191
 31
0.0
 73
     2
  0
POINT
  8
DEFPOINTS
  6
BYBLOCK
 62
     0
 10
85.744019
 20
32.362715
 30
0.0
  0
POINT
  8
DEFPOINTS
  6
BYBLOCK
 62
     0
 10
85.094035
 20
32.362715
 30
0.0
  0
POINT
  8
DEFPOINTS
  6
BYBLOCK
 62
     0
 10
85.094035
 20
32.216191
 30
0.0
  0
ENDBLK
  8
0
  0
ENDSEC
  0
SECTION
  2
ENTITIES
  0
POLYLINE
  8
0
 66
     1
 10
0.0
 20
0.0
 30
0.0
 70
     1
  0
VERTEX
  8
0
 10
86.377807
 20
34.203684
 30
0.0
 42
0.030917
  0
VERTEX
  8
0
 10
85.96609
 20
34.229167
 30
0.0
 42
0.030917
  0
VERTEX
  8
0
 10
85.554372
 20
34.203684
 30
0.0
 42
0.041981
  0
VERTEX
  8
0
 10
85.256109
 20
34.140877
 30
0.0
 42
0.084039
  0
VERTEX
  8
0
 10
85.006196
 20
34.017325
 30
0.0
 42
0.240474
  0
VERTEX
  8
0
 10
84.956135
 20
33.918214
 30
0.0
  0
VERTEX
  8
0
 10
85.084946
 20
32.571811
 30
0.0
  0
VERTEX
  8
0
 10
85.73427
 20
32.571811
 30
0.0
 42
0.147491
  0
VERTEX
  8
0
 10
85.748423
 20
32.538238
 30
0.0
 42
0.104203
  0
VERTEX
  8
0
 10
85.798022
 20
32.498838
 30
0.0
 42
0.064948
  0
VERTEX
  8
0
 10
85.861001
 20
32.476989
 30
0.0
 42
0.051099
  0
VERTEX
  8
0
 10
85.943915
 20
32.468493
 30
0.0
 42
0.051099
  0
VERTEX
  8
0
 10
86.026829
 20
32.476989
 30
0.0
 42
0.064948
  0
VERTEX
  8
0
 10
86.089809
 20
32.498838
 30
0.0
 42
0.104203
  0
VERTEX
  8
0
 10
86.139411
 20
32.538242
 30
0.0
 42
0.147022
  0
VERTEX
  8
0
 10
86.153574
 20
32.571811
 30
0.0
 50
16.699244
  0
VERTEX
  8
0
 10
86.802636
 20
32.571811
 30
0.0
 50
16.699244
  0
VERTEX
  8
0
 10
86.975917
 20
33.919234
 30
0.0
 42
0.241991
  0
VERTEX
  8
0
 10
86.925976
 20
34.01733
 30
0.0
 42
0.084036
  0
VERTEX
  8
0
 10
86.67607
 20
34.140877
 30
0.0
 42
0.041981
  0
SEQEND
  8
0
  0
POLYLINE
  8
0
 66
     1
 10
0.0
 20
0.0
 30
0.0
 70
     1
  0
VERTEX
  8
0
 10
86.375341
 20
34.183836
 30
0.0
 42
0.030917
  0
VERTEX
  8
0
 10
85.96609
 20
34.209167
 30
0.0
 42
0.030917
  0
VERTEX
  8
0
 10
85.556838
 20
34.183836
 30
0.0
 42
0.041981
  0
VERTEX
  8
0
 10
85.261856
 20
34.12172
 30
0.0
 42
0.084039
  0
VERTEX
  8
0
 10
85.017928
 20
34.001127
 30
0.0
 42
0.239256
  0
VERTEX
  8
0
 10
84.976091
 20
33.919633
 30
0.0
  0
VERTEX
  8
0
 10
85.103124
 20
32.591811
 30
0.0
  0
VERTEX
  8
0
 10
85.756024
 20
32.591811
 30
0.0
 42
0.256933
  0
VERTEX
  8
0
 10
85.763825
 20
32.550997
 30
0.0
 42
0.104203
  0
VERTEX
  8
0
 10
85.806966
 20
32.516726
 30
0.0
 42
0.064948
  0
VERTEX
  8
0
 10
85.865057
 20
32.496573
 30
0.0
 42
0.051099
  0
VERTEX
  8
0
 10
85.943915
 20
32.488493
 30
0.0
 42
0.051099
  0
VERTEX
  8
0
 10
86.022773
 20
32.496573
 30
0.0
 42
0.064948
  0
VERTEX
  8
0
 10
86.080864
 20
32.516726
 30
0.0
 42
0.104197
  0
VERTEX
  8
0
 10
86.124003
 20
32.550994
 30
0.0
 42
0.255741
  0
VERTEX
  8
0
 10
86.131869
 20
32.591811
 30
0.0
 50
16.699244
  0
VERTEX
  8
0
 10
86.785044
 20
32.591811
 30
0.0
 50
16.699244
  0
VERTEX
  8
0
 10
86.955918
 20
33.919919
 30
0.0
 42
0.240414
  0
VERTEX
  8
0
 10
86.914252
 20
34.001127
 30
0.0
 42
0.084039
  0
VERTEX
  8
0
 10
86.670323
 20
34.12172
 30
0.0
 42
0.041981
  0
SEQEND
  8
0
  0
POLYLINE
  8
0
 66
     1
 10
0.0
 20
0.0
 30
0.0
 70
     1
  0
VERTEX
  8
0
 10
86.376574
 20
34.19376
 30
0.0
 42
0.030917
  0
VERTEX
  8
0
 10
85.96609
 20
34.219167
 30
0.0
 42
0.030917
  0
VERTEX
  8
0
 10
85.555605
 20
34.19376
 30
0.0
 42
0.041981
  0
VERTEX
  8
0
 10
85.258983
 20
34.131299
 30
0.0
 42
0.084039
  0
VERTEX
  8
0
 10
85.012062
 20
34.009226
 30
0.0
 42
0.240474
  0
VERTEX
  8
0
 10
84.96609
 20
33.919167
 30
0.0
  0
VERTEX
  8
0
 10
85.094035
 20
32.581811
 30
0.0
  0
VERTEX
  8
0
 10
85.744019
 20
32.581811
 30
0.0
  0
VERTEX
  8
0
 10
85.744019
 20
32.581811
 30
0.0
 42
0.190858
  0
VERTEX
  8
0
 10
85.756124
 20
32.544617
 30
0.0
 42
0.104203
  0
VERTEX
  8
0
 10
85.802494
 20
32.507782
 30
0.0
 42
0.064948
  0
VERTEX
  8
0
 10
85.863029
 20
32.486781
 30
0.0
 42
0.051099
  0
VERTEX
  8
0
 10
85.943915
 20
32.478493
 30
0.0
 42
0.051099
  0
VERTEX
  8
0
 10
86.024801
 20
32.486781
 30
0.0
 42
0.064948
  0
VERTEX
  8
0
 10
86.085336
 20
32.507782
 30
0.0
 42
0.104203
  0
VERTEX
  8
0
 10
86.131706
 20
32.544617
 30
0.0
 42
0.190168
  0
VERTEX
  8
0
 10
86.14384
 20
32.581811
 30
0.0
 50
16.699244
  0
VERTEX
  8
0
 10
86.79384
 20
32.581811
 30
0.0
 50
16.699244
  0
VERTEX
  8
0
 10
86.965917
 20
33.919274
 30
0.0
 42
0.242012
  0
VERTEX
  8
0
 10
86.920117
 20
34.009226
 30
0.0
 42
0.084039
  0
VERTEX
  8
0
 10
86.673196
 20
34.131299
 30
0.0
 42
0.041981
  0
SEQEND
  8
0
  0
LINE
  8
0
 10
86.920829
 20
34.335489
 30
0.0
 11
86.982189
 21
34.391268
 31
0.0
  0
POLYLINE
  8
0
 66
     1
 10
0.0
 20
0.0
 30
0.0
  0
VERTEX
  8
0
 10
86.965917
 20
33.919274
 30
0.0
  0
VERTEX
  8
0
 10
86.965917
 20
34.368495
 30
0.0
  0
VERTEX
  8
0
 10
84.970731
 20
34.368495
 30
0.0
  0
VERTEX
  8
0
 10
84.96609
 20
33.919167
 30
0.0
  0
SEQEND
  8
0
  0
LINE
  8
0
 10
85.943863
 20
32.472121
 30
0.0
 11
88.100247
 21
32.472121
 31
0.0
  0
LINE
  8
0
 10
85.943863
 20
34.234777
 30
0.0
 11
88.100247
 21
34.234777
 31
0.0
  0
TEXT
  8
0
 10
83.377275
 20
40.341026
 30
0.0
 40
0.3
  1
TIPUS   NT298
  7
ROMANC
  0
LINE
  8
0
 10
80.847302
 20
27.895167
 30
0.0
 11
91.347302
 21
27.895167
 31
0.0
  0
LINE
  8
0
 10
91.347302
 20
42.745167
 30
0.0
 11
80.847302
 21
42.745167
 31
0.0
  0
LINE
  8
0
 10
80.847302
 20
42.745167
 30
0.0
 11
80.847302
 21
27.895167
 31
0.0
  0
LINE
  8
0
 10
86.76032
 20
32.101719
 30
0.0
 11
86.821681
 21
32.157498
 31
0.0
  0
TEXT
  8
0
 10
85.800679
 20
31.824325
 30
0.0
 40
0.1
  1
1.70
  7
ROMANC
  0
LINE
  8
0
 10
85.066069
 20
32.10766
 30
0.0
 11
85.12743
 21
32.163439
 31
0.0
  0
LINE
  8
0
 10
84.941229
 20
34.34737
 30
0.0
 11
85.00259
 21
34.403149
 31
0.0
  0
TEXT
  8
0
 10
85.800679
 20
32.179273
 30
0.0
 40
0.1
  1
0.4
  7
ROMANC
  0
TEXT
  8
0
 10
85.906272
 20
34.577568
 30
0.0
 40
0.1
  1
2.0
  7
ROMANC
  0
TEXT
  8
0
 10
86.617794
 20
39.562638
 30
0.0
 40
0.1
  1
2
  7
ROMANC
  0
TEXT
  8
0
 10
83.377275
 20
39.855312
 30
0.0
 40
0.3
  1
ESCALA  1:50
  7
ROMANC
  0
TEXT
  8
0
 10
83.390369
 20
39.256722
 30
0.0
 40
0.3
  1
S = 298 dm
  7
ROMANC
  0
TEXT
  8
0
 10
83.387541
 20
38.583224
 30
0.0
 40
0.3
  1
P = 668 dm
  7
ROMANC
  0
LINE
  8
0
 10
91.347302
 20
27.895167
 30
0.0
 11
91.347302
 21
42.745167
 31
0.0
  0
LINE
  8
0
 10
87.34885
 20
34.198848
 30
0.0
 11
87.410211
 21
34.254627
 31
0.0
  0
LINE
  8
0
 10
87.34885
 20
32.44629
 30
0.0
 11
87.410211
 21
32.502069
 31
0.0
  0
TEXT
  8
0
 10
88.207223
 20
33.254272
 30
0.0
 40
0.1
  1
1.76
  7
ROMANC
  0
LINE
  8
0
 10
87.379234
 20
32.472121
 30
0.0
 11
87.385316
 21
34.234777
 31
0.0
  0
LINE
  8
0
 10
86.965917
 20
33.919274
 30
0.0
 11
87.384222
 21
33.91783
 31
0.0
  0
LINE
  8
0
 10
86.785044
 20
32.591811
 30
0.0
 11
87.37964
 21
32.589759
 31
0.0
  0
LINE
  8
0
 10
88.100247
 20
34.234777
 30
0.0
 11
88.100247
 21
32.472121
 31
0.0
  0
TEXT
  8
0
 10
87.521255
 20
32.502698
 30
0.0
 40
0.1
  1
0.12
  7
ROMANC
  0
TEXT
  8
0
 10
87.500931
 20
33.20349
 30
0.0
 40
0.1
  1
1.33
  7
ROMANC
  0
TEXT
  8
0
 10
87.500931
 20
34.000769
 30
0.0
 40
0.1
  1
0.32
  7
ROMANC
  0
LINE
  8
0
 10
85.094035
 20
32.581811
 30
0.0
 11
85.094035
 21
32.125668
 31
0.0
  0
LINE
  8
0
 10
85.094035
 20
32.125668
 30
0.0
 11
86.795354
 21
32.125668
 31
0.0
  0
LINE
  8
0
 10
86.795354
 20
32.125668
 30
0.0
 11
86.79384
 21
32.581811
 31
0.0
  0
LINE
  8
0
 10
88.071831
 20
32.44629
 30
0.0
 11
88.133192
 21
32.502069
 31
0.0
  0
LINE
  8
0
 10
88.071831
 20
34.208945
 30
0.0
 11
88.133192
 21
34.264725
 31
0.0
  0
LINE
  8
0
 10
85.744019
 20
32.581811
 30
0.0
 11
85.744019
 21
32.362715
 31
0.0
  0
LINE
  8
0
 10
85.094035
 20
32.362715
 30
0.0
 11
86.794568
 21
32.362715
 31
0.0
  0
LINE
  8
0
 10
86.150654
 20
32.362715
 30
0.0
 11
86.14384
 21
32.581811
 31
0.0
  0
LINE
  8
0
 10
86.768222
 20
32.338766
 30
0.0
 11
86.829583
 21
32.394545
 31
0.0
  0
LINE
  8
0
 10
86.124308
 20
32.338766
 30
0.0
 11
86.185669
 21
32.394545
 31
0.0
  0
LINE
  8
0
 10
85.717673
 20
32.338766
 30
0.0
 11
85.779034
 21
32.394545
 31
0.0
  0
LINE
  8
0
 10
85.06769
 20
32.338766
 30
0.0
 11
85.129051
 21
32.394545
 31
0.0
  0
TEXT
  8
0
 10
85.292555
 20
32.174195
 30
0.0
 40
0.1
  1
0.65
  7
ROMANC
  0
TEXT
  8
0
 10
86.329127
 20
32.179273
 30
0.0
 40
0.1
  1
0.65
  7
ROMANC
  0
ENDSEC
  0
EOF
