  0
SECTION
  2
HEADER
  9
$ACADVER
  1
AC1009
  9
$INSBASE
 10
0.0
 20
0.0
 30
0.0
  9
$EXTMIN
 10
281.396
 20
29.897
 30
0.0
  9
$EXTMAX
 10
291.896
 20
44.747
 30
0.0
  9
$LIMMIN
 10
280.396
 20
28.897
  9
$LIMMAX
 10
292.896
 20
43.747
  9
$ORTHOMODE
 70
     0
  9
$REGENMODE
 70
     1
  9
$FILLMODE
 70
     1
  9
$QTEXTMODE
 70
     0
  9
$MIRRTEXT
 70
     1
  9
$DRAGMODE
 70
     2
  9
$LTSCALE
 40
1.0
  9
$OSMODE
 70
     0
  9
$ATTMODE
 70
     1
  9
$TEXTSIZE
 40
0.2
  9
$TRACEWID
 40
0.05
  9
$TEXTSTYLE
  7
STANDARD
  9
$CLAYER
  8
0
  9
$CELTYPE
  6
BYLAYER
  9
$CECOLOR
 62
   256
  9
$DIMSCALE
 40
1.0
  9
$DIMASZ
 40
0.18
  9
$DIMEXO
 40
0.0625
  9
$DIMDLI
 40
0.38
  9
$DIMRND
 40
0.0
  9
$DIMDLE
 40
0.0
  9
$DIMEXE
 40
0.18
  9
$DIMTP
 40
0.0
  9
$DIMTM
 40
0.0
  9
$DIMTXT
 40
0.18
  9
$DIMCEN
 40
0.09
  9
$DIMTSZ
 40
0.0
  9
$DIMTOL
 70
     0
  9
$DIMLIM
 70
     0
  9
$DIMTIH
 70
     1
  9
$DIMTOH
 70
     1
  9
$DIMSE1
 70
     0
  9
$DIMSE2
 70
     0
  9
$DIMTAD
 70
     0
  9
$DIMZIN
 70
     0
  9
$DIMBLK
  1

  9
$DIMASO
 70
     1
  9
$DIMSHO
 70
     1
  9
$DIMPOST
  1

  9
$DIMAPOST
  1

  9
$DIMALT
 70
     0
  9
$DIMALTD
 70
     2
  9
$DIMALTF
 40
25.4
  9
$DIMLFAC
 40
1.0
  9
$DIMTOFL
 70
     0
  9
$DIMTVP
 40
0.0
  9
$DIMTIX
 70
     0
  9
$DIMSOXD
 70
     0
  9
$DIMSAH
 70
     0
  9
$DIMBLK1
  1

  9
$DIMBLK2
  1

  9
$DIMSTYLE
  2
*UNNAMED
  9
$DIMCLRD
 70
     0
  9
$DIMCLRE
 70
     0
  9
$DIMCLRT
 70
     0
  9
$DIMTFAC
 40
1.0
  9
$DIMGAP
 40
0.09
  9
$LUNITS
 70
     2
  9
$LUPREC
 70
     4
  9
$SKETCHINC
 40
0.1
  9
$FILLETRAD
 40
0.0
  9
$AUNITS
 70
     0
  9
$AUPREC
 70
     0
  9
$MENU
  1
acad
  9
$ELEVATION
 40
0.0
  9
$PELEVATION
 40
0.0
  9
$THICKNESS
 40
0.0
  9
$LIMCHECK
 70
     0
  9
$BLIPMODE
 70
     1
  9
$CHAMFERA
 40
0.0
  9
$CHAMFERB
 40
0.0
  9
$SKPOLY
 70
     0
  9
$TDCREATE
 40
2448315.373408102
  9
$TDUPDATE
 40
2448315.373408102
  9
$TDINDWG
 40
0.0000000000
  9
$TDUSRTIMER
 40
0.0000000000
  9
$USRTIMER
 70
     1
  9
$ANGBASE
 50
0.0
  9
$ANGDIR
 70
     0
  9
$PDMODE
 70
     0
  9
$PDSIZE
 40
0.0
  9
$PLINEWID
 40
0.0
  9
$COORDS
 70
     0
  9
$SPLFRAME
 70
     0
  9
$SPLINETYPE
 70
     6
  9
$SPLINESEGS
 70
     8
  9
$ATTDIA
 70
     0
  9
$ATTREQ
 70
     1
  9
$HANDLING
 70
     0
  9
$HANDSEED
  5
0
  9
$SURFTAB1
 70
     6
  9
$SURFTAB2
 70
     6
  9
$SURFTYPE
 70
     6
  9
$SURFU
 70
     6
  9
$SURFV
 70
     6
  9
$UCSNAME
  2

  9
$UCSORG
 10
0.0
 20
0.0
 30
0.0
  9
$UCSXDIR
 10
1.0
 20
0.0
 30
0.0
  9
$UCSYDIR
 10
0.0
 20
1.0
 30
0.0
  9
$PUCSNAME
  2

  9
$PUCSORG
 10
0.0
 20
0.0
 30
0.0
  9
$PUCSXDIR
 10
1.0
 20
0.0
 30
0.0
  9
$PUCSYDIR
 10
0.0
 20
1.0
 30
0.0
  9
$USERI1
 70
     0
  9
$USERI2
 70
     0
  9
$USERI3
 70
     0
  9
$USERI4
 70
     0
  9
$USERI5
 70
     0
  9
$USERR1
 40
0.0
  9
$USERR2
 40
0.0
  9
$USERR3
 40
0.0
  9
$USERR4
 40
0.0
  9
$USERR5
 40
0.0
  9
$WORLDVIEW
 70
     1
  9
$SHADEDGE
 70
     3
  9
$SHADEDIF
 70
    70
  9
$TILEMODE
 70
     1
  9
$MAXACTVP
 70
    16
  9
$PINSBASE
 10
0.0
 20
0.0
 30
0.0
  9
$PLIMCHECK
 70
     0
  9
$PEXTMIN
 10
1.000000E+20
 20
1.000000E+20
 30
1.000000E+20
  9
$PEXTMAX
 10
-1.000000E+20
 20
-1.000000E+20
 30
-1.000000E+20
  9
$PLIMMIN
 10
0.0
 20
0.0
  9
$PLIMMAX
 10
12.0
 20
9.0
  9
$UNITMODE
 70
     0
  9
$VISRETAIN
 70
     0
  9
$PLINEGEN
 70
     0
  9
$PSLTSCALE
 70
     0
  9
$TREEDEPTH
 70
  3020
  9
$DWGCODEPAGE
  3
iso8859-1
  0
ENDSEC
  0
SECTION
  2
TABLES
  0
TABLE
  2
VPORT
 70
     2
  0
VPORT
  2
*ACTIVE
 70
     0
 10
0.0
 20
0.0
 11
1.0
 21
1.0
 12
293.539587
 22
36.822
 13
0.0
 23
0.0
 14
1.0
 24
1.0
 15
10.0
 25
10.0
 16
0.0
 26
0.0
 36
1.0
 17
0.0
 27
0.0
 37
0.0
 40
15.85
 41
1.658497
 42
50.0
 43
0.0
 44
0.0
 50
0.0
 51
0.0
 71
     0
 72
   100
 73
     1
 74
     0
 75
     0
 76
     0
 77
     0
 78
     0
  0
ENDTAB
  0
TABLE
  2
LTYPE
 70
     1
  0
LTYPE
  2
CONTINUOUS
 70
    64
  3
Solid line
 72
    65
 73
     0
 40
0.0
  0
ENDTAB
  0
TABLE
  2
LAYER
 70
     7
  0
LAYER
  2
0
 70
    64
 62
     7
  6
CONTINUOUS
  0
LAYER
  2
1
 70
    64
 62
     7
  6
CONTINUOUS
  0
LAYER
  2
7
 70
    64
 62
     7
  6
CONTINUOUS
  0
LAYER
  2
8
 70
    64
 62
     7
  6
CONTINUOUS
  0
LAYER
  2
9
 70
    64
 62
     7
  6
CONTINUOUS
  0
LAYER
  2
22
 70
    64
 62
     7
  6
CONTINUOUS
  0
LAYER
  2
25
 70
    64
 62
     7
  6
CONTINUOUS
  0
ENDTAB
  0
TABLE
  2
STYLE
 70
     2
  0
STYLE
  2
STANDARD
 70
     0
 40
0.0
 41
1.0
 50
0.0
 71
     0
 42
3.5
  3
txt
  4

  0
STYLE
  2
ROMANC
 70
     0
 40
0.0
 41
1.0
 50
0.0
 71
     0
 42
0.2
  3
ROMANC
  4

  0
ENDTAB
  0
TABLE
  2
VIEW
 70
     0
  0
ENDTAB
  0
TABLE
  2
UCS
 70
     0
  0
ENDTAB
  0
TABLE
  2
APPID
 70
     1
  0
APPID
  2
ACAD
 70
    64
  0
ENDTAB
  0
TABLE
  2
DIMSTYLE
 70
     0
  0
ENDTAB
  0
ENDSEC
  0
SECTION
  2
BLOCKS
  0
ENDSEC
  0
SECTION
  2
ENTITIES
  0
TEXT
  8
0
  6
CONTINUOUS
 10
286.909
 20
41.324
 30
0.0
 40
0.1
  1
2
  7
ROMANC
  0
TEXT
  8
0
  6
CONTINUOUS
 10
283.926
 20
41.768
 30
0.0
 40
0.3
  1
ESCALA  1:50
  7
ROMANC
  0
POLYLINE
  8
0
  6
CONTINUOUS
 66
     1
 10
0.0
 20
0.0
 30
0.0
 70
     1
  0
VERTEX
  8
0
  6
CONTINUOUS
 10
281.396
 20
44.747
 30
0.0
  0
VERTEX
  8
0
  6
CONTINUOUS
 10
291.896
 20
44.747
 30
0.0
  0
VERTEX
  8
0
  6
CONTINUOUS
 10
291.896
 20
29.897
 30
0.0
  0
VERTEX
  8
0
  6
CONTINUOUS
 10
281.396
 20
29.897
 30
0.0
  0
SEQEND
  8
0
  0
LINE
  8
1
  6
CONTINUOUS
 10
289.832
 20
36.403
 30
0.0
 11
289.332
 21
36.703
 31
0.0
  0
TEXT
  8
0
  6
CONTINUOUS
 10
283.922
 20
40.529
 30
0.0
 40
0.3
  1
P = 222 dm
  7
ROMANC
  0
TEXT
  8
0
  6
CONTINUOUS
 10
283.945
 20
41.099
 30
0.0
 40
0.3
  1
S =2892 dm
  7
ROMANC
  0
LINE
  8
1
  6
CONTINUOUS
 10
282.632
 20
36.403
 30
0.0
 11
282.632
 21
32.603
 31
0.0
  0
LINE
  8
1
  6
CONTINUOUS
 10
289.832
 20
33.103
 30
0.0
 11
289.832
 21
36.403
 31
0.0
  0
TEXT
  8
1
  6
CONTINUOUS
 10
286.113
 20
37.02
 30
0.0
 40
0.075
  1
7.20
  7
ROMANC
  0
LINE
  8
1
  6
CONTINUOUS
 10
286.075
 20
37.057
 30
0.0
 11
282.632
 21
37.057
 31
0.0
  0
LINE
  8
1
  6
CONTINUOUS
 10
286.387
 20
37.057
 30
0.0
 11
289.832
 21
37.057
 31
0.0
  0
LINE
  8
1
  6
CONTINUOUS
 10
282.594
 20
37.038
 30
0.0
 11
282.67
 21
37.076
 31
0.0
  0
LINE
  8
1
  6
CONTINUOUS
 10
289.87
 20
37.076
 30
0.0
 11
289.794
 21
37.038
 31
0.0
  0
LINE
  8
1
  6
CONTINUOUS
 10
282.632
 20
36.441
 30
0.0
 11
282.632
 21
37.095
 31
0.0
  0
LINE
  8
1
  6
CONTINUOUS
 10
289.832
 20
36.441
 30
0.0
 11
289.832
 21
37.095
 31
0.0
  0
LINE
  8
1
  6
CONTINUOUS
 10
282.632
 20
32.603
 30
0.0
 11
288.932
 21
32.603
 31
0.0
  0
LINE
  8
1
  6
CONTINUOUS
 10
288.932
 20
32.603
 30
0.0
 11
288.932
 21
33.103
 31
0.0
  0
TEXT
  8
1
  6
CONTINUOUS
 10
288.638
 20
32.734
 30
0.0
 40
0.075
  1
0.50
 50
90.0
  7
ROMANC
  0
LINE
  8
1
  6
CONTINUOUS
 10
288.6
 20
32.453
 30
0.0
 11
288.6
 21
32.603
 31
0.0
  0
LINE
  8
1
  6
CONTINUOUS
 10
288.6
 20
33.253
 30
0.0
 11
288.6
 21
33.103
 31
0.0
  0
LINE
  8
1
  6
CONTINUOUS
 10
288.581
 20
32.64
 30
0.0
 11
288.619
 21
32.566
 31
0.0
  0
LINE
  8
1
  6
CONTINUOUS
 10
288.619
 20
33.066
 30
0.0
 11
288.581
 21
33.14
 31
0.0
  0
LINE
  8
1
  6
CONTINUOUS
 10
288.894
 20
32.603
 30
0.0
 11
288.562
 21
32.603
 31
0.0
  0
LINE
  8
1
  6
CONTINUOUS
 10
288.894
 20
33.103
 30
0.0
 11
288.562
 21
33.103
 31
0.0
  0
LINE
  8
1
  6
CONTINUOUS
 10
288.932
 20
33.103
 30
0.0
 11
289.832
 21
33.103
 31
0.0
  0
TEXT
  8
1
  6
CONTINUOUS
 10
289.263
 20
33.422
 30
0.0
 40
0.075
  1
0.90
  7
ROMANC
  0
LINE
  8
1
  6
CONTINUOUS
 10
289.225
 20
33.459
 30
0.0
 11
288.932
 21
33.459
 31
0.0
  0
LINE
  8
1
  6
CONTINUOUS
 10
289.537
 20
33.459
 30
0.0
 11
289.832
 21
33.459
 31
0.0
  0
LINE
  8
1
  6
CONTINUOUS
 10
288.894
 20
33.44
 30
0.0
 11
288.97
 21
33.478
 31
0.0
  0
LINE
  8
1
  6
CONTINUOUS
 10
289.87
 20
33.478
 30
0.0
 11
289.794
 21
33.44
 31
0.0
  0
LINE
  8
1
  6
CONTINUOUS
 10
288.932
 20
33.141
 30
0.0
 11
288.932
 21
33.497
 31
0.0
  0
LINE
  8
1
  6
CONTINUOUS
 10
289.832
 20
33.141
 30
0.0
 11
289.832
 21
33.497
 31
0.0
  0
LINE
  8
1
  6
CONTINUOUS
 10
289.332
 20
36.703
 30
0.0
 11
283.132
 21
36.703
 31
0.0
  0
TEXT
  8
1
  6
CONTINUOUS
 10
290.25
 20
34.54
 30
0.0
 40
0.075
  1
4.10
 50
90.0
  7
ROMANC
  0
LINE
  8
1
  6
CONTINUOUS
 10
290.212
 20
34.502
 30
0.0
 11
290.212
 21
32.603
 31
0.0
  0
LINE
  8
1
  6
CONTINUOUS
 10
290.212
 20
34.804
 30
0.0
 11
290.212
 21
36.703
 31
0.0
  0
LINE
  8
1
  6
CONTINUOUS
 10
290.231
 20
32.566
 30
0.0
 11
290.193
 21
32.64
 31
0.0
  0
LINE
  8
1
  6
CONTINUOUS
 10
290.193
 20
36.74
 30
0.0
 11
290.231
 21
36.666
 31
0.0
  0
LINE
  8
1
  6
CONTINUOUS
 10
288.97
 20
32.603
 30
0.0
 11
290.25
 21
32.603
 31
0.0
  0
LINE
  8
1
  6
CONTINUOUS
 10
289.37
 20
36.703
 30
0.0
 11
290.25
 21
36.703
 31
0.0
  0
TEXT
  8
1
  6
CONTINUOUS
 10
282.763
 20
36.07
 30
0.0
 40
0.075
  1
0.50
  7
ROMANC
  0
LINE
  8
1
  6
CONTINUOUS
 10
282.482
 20
36.107
 30
0.0
 11
282.632
 21
36.107
 31
0.0
  0
LINE
  8
1
  6
CONTINUOUS
 10
283.282
 20
36.107
 30
0.0
 11
283.132
 21
36.107
 31
0.0
  0
LINE
  8
1
  6
CONTINUOUS
 10
282.67
 20
36.126
 30
0.0
 11
282.594
 21
36.088
 31
0.0
  0
LINE
  8
1
  6
CONTINUOUS
 10
283.094
 20
36.088
 30
0.0
 11
283.17
 21
36.126
 31
0.0
  0
LINE
  8
1
  6
CONTINUOUS
 10
282.632
 20
36.365
 30
0.0
 11
282.632
 21
36.069
 31
0.0
  0
LINE
  8
1
  6
CONTINUOUS
 10
283.132
 20
36.665
 30
0.0
 11
283.132
 21
36.069
 31
0.0
  0
LINE
  8
1
  6
CONTINUOUS
 10
283.132
 20
36.703
 30
0.0
 11
282.632
 21
36.403
 31
0.0
  0
TEXT
  8
1
  6
CONTINUOUS
 10
283.458
 20
36.449
 30
0.0
 40
0.075
  1
0.30
 50
90.0
  7
ROMANC
  0
LINE
  8
1
  6
CONTINUOUS
 10
283.421
 20
36.253
 30
0.0
 11
283.421
 21
36.403
 31
0.0
  0
LINE
  8
1
  6
CONTINUOUS
 10
283.421
 20
36.853
 30
0.0
 11
283.421
 21
36.703
 31
0.0
  0
LINE
  8
1
  6
CONTINUOUS
 10
283.402
 20
36.44
 30
0.0
 11
283.44
 21
36.366
 31
0.0
  0
LINE
  8
1
  6
CONTINUOUS
 10
283.44
 20
36.666
 30
0.0
 11
283.402
 21
36.74
 31
0.0
  0
LINE
  8
1
  6
CONTINUOUS
 10
282.67
 20
36.403
 30
0.0
 11
283.459
 21
36.403
 31
0.0
  0
LINE
  8
1
  6
CONTINUOUS
 10
283.17
 20
36.703
 30
0.0
 11
283.459
 21
36.703
 31
0.0
  0
LINE
  8
1
  6
CONTINUOUS
 10
289.334
 20
36.713
 30
0.0
 11
283.129
 21
36.713
 31
0.0
  0
LINE
  8
1
  6
CONTINUOUS
 10
289.337
 20
36.723
 30
0.0
 11
283.126
 21
36.723
 31
0.0
  0
LINE
  8
1
  6
CONTINUOUS
 10
283.129
 20
36.713
 30
0.0
 11
282.622
 21
36.409
 31
0.0
  0
LINE
  8
1
  6
CONTINUOUS
 10
283.126
 20
36.723
 30
0.0
 11
282.612
 21
36.415
 31
0.0
  0
LINE
  8
1
  6
CONTINUOUS
 10
282.622
 20
36.409
 30
0.0
 11
282.622
 21
32.593
 31
0.0
  0
LINE
  8
1
  6
CONTINUOUS
 10
282.612
 20
36.415
 30
0.0
 11
282.612
 21
32.583
 31
0.0
  0
LINE
  8
1
  6
CONTINUOUS
 10
282.622
 20
32.593
 30
0.0
 11
288.942
 21
32.593
 31
0.0
  0
LINE
  8
1
  6
CONTINUOUS
 10
282.612
 20
32.583
 30
0.0
 11
288.952
 21
32.583
 31
0.0
  0
LINE
  8
1
  6
CONTINUOUS
 10
288.942
 20
32.593
 30
0.0
 11
288.942
 21
33.093
 31
0.0
  0
LINE
  8
1
  6
CONTINUOUS
 10
288.952
 20
32.583
 30
0.0
 11
288.952
 21
33.083
 31
0.0
  0
LINE
  8
1
  6
CONTINUOUS
 10
288.942
 20
33.093
 30
0.0
 11
289.842
 21
33.093
 31
0.0
  0
LINE
  8
1
  6
CONTINUOUS
 10
288.952
 20
33.083
 30
0.0
 11
289.852
 21
33.083
 31
0.0
  0
LINE
  8
1
  6
CONTINUOUS
 10
289.842
 20
33.093
 30
0.0
 11
289.842
 21
36.408
 31
0.0
  0
LINE
  8
1
  6
CONTINUOUS
 10
289.852
 20
33.083
 30
0.0
 11
289.852
 21
36.414
 31
0.0
  0
LINE
  8
1
  6
CONTINUOUS
 10
289.842
 20
36.408
 30
0.0
 11
289.334
 21
36.713
 31
0.0
  0
LINE
  8
1
  6
CONTINUOUS
 10
289.852
 20
36.414
 30
0.0
 11
289.337
 21
36.723
 31
0.0
  0
TEXT
  8
0
  6
CONTINUOUS
 10
283.926
 20
42.381
 30
0.0
 40
0.3
  1
TIPUS   NT2892
  7
ROMANC
  0
ENDSEC
  0
EOF
