  0
SECTION
  2
HEADER
  9
$ACADVER
  1
AC1009
  9
$INSBASE
 10
205.206796
 20
-18.951396
 30
0.0
  9
$EXTMIN
 10
205.206796
 20
-18.951396
 30
0.0
  9
$EXTMAX
 10
215.706796
 20
-4.101396
 30
0.0
  9
$LIMMIN
 10
0.0
 20
0.0
  9
$LIMMAX
 10
410.0
 20
287.0
  9
$ORTHOMODE
 70
     0
  9
$REGENMODE
 70
     1
  9
$FILLMODE
 70
     1
  9
$QTEXTMODE
 70
     0
  9
$MIRRTEXT
 70
     1
  9
$DRAGMODE
 70
     2
  9
$LTSCALE
 40
25.0
  9
$OSMODE
 70
    32
  9
$ATTMODE
 70
     1
  9
$TEXTSIZE
 40
0.1
  9
$TRACEWID
 40
1.0
  9
$TEXTSTYLE
  7
ROMANC
  9
$CLAYER
  8
0
  9
$CELTYPE
  6
BYLAYER
  9
$CECOLOR
 62
   256
  9
$DIMSCALE
 40
0.0
  9
$DIMASZ
 40
0.0
  9
$DIMEXO
 40
0.1
  9
$DIMDLI
 40
7.0
  9
$DIMRND
 40
0.0
  9
$DIMDLE
 40
0.0
  9
$DIMEXE
 40
1.8
  9
$DIMTP
 40
0.0
  9
$DIMTM
 40
0.0
  9
$DIMTXT
 40
0.03
  9
$DIMCEN
 40
1.5
  9
$DIMTSZ
 40
1.0
  9
$DIMTOL
 70
     0
  9
$DIMLIM
 70
     0
  9
$DIMTIH
 70
     0
  9
$DIMTOH
 70
     0
  9
$DIMSE1
 70
     0
  9
$DIMSE2
 70
     0
  9
$DIMTAD
 70
     0
  9
$DIMZIN
 70
     0
  9
$DIMBLK
  1

  9
$DIMASO
 70
     1
  9
$DIMSHO
 70
     0
  9
$DIMPOST
  1

  9
$DIMAPOST
  1

  9
$DIMALT
 70
     0
  9
$DIMALTD
 70
     2
  9
$DIMALTF
 40
25.4
  9
$DIMLFAC
 40
1.0
  9
$DIMTOFL
 70
     1
  9
$DIMTVP
 40
0.0
  9
$DIMTIX
 70
     1
  9
$DIMSOXD
 70
     0
  9
$DIMSAH
 70
     0
  9
$DIMBLK1
  1

  9
$DIMBLK2
  1

  9
$DIMSTYLE
  2
*UNNAMED
  9
$DIMCLRD
 70
     0
  9
$DIMCLRE
 70
     0
  9
$DIMCLRT
 70
     0
  9
$DIMTFAC
 40
116.666667
  9
$DIMGAP
 40
0.09
  9
$LUNITS
 70
     2
  9
$LUPREC
 70
     2
  9
$SKETCHINC
 40
1.0
  9
$FILLETRAD
 40
0.0
  9
$AUNITS
 70
     0
  9
$AUPREC
 70
     0
  9
$MENU
  1
acad
  9
$ELEVATION
 40
0.0
  9
$PELEVATION
 40
0.0
  9
$THICKNESS
 40
0.0
  9
$LIMCHECK
 70
     0
  9
$BLIPMODE
 70
     0
  9
$CHAMFERA
 40
0.0
  9
$CHAMFERB
 40
0.0
  9
$SKPOLY
 70
     0
  9
$TDCREATE
 40
2449967.541757870
  9
$TDUPDATE
 40
2450721.562390625
  9
$TDINDWG
 40
0.0030164352
  9
$TDUSRTIMER
 40
0.0030164352
  9
$USRTIMER
 70
     1
  9
$ANGBASE
 50
0.0
  9
$ANGDIR
 70
     0
  9
$PDMODE
 70
     0
  9
$PDSIZE
 40
0.0
  9
$PLINEWID
 40
0.0
  9
$COORDS
 70
     2
  9
$SPLFRAME
 70
     0
  9
$SPLINETYPE
 70
     6
  9
$SPLINESEGS
 70
     8
  9
$ATTDIA
 70
     0
  9
$ATTREQ
 70
     1
  9
$HANDLING
 70
     0
  9
$HANDSEED
  5
0
  9
$SURFTAB1
 70
     6
  9
$SURFTAB2
 70
     6
  9
$SURFTYPE
 70
     6
  9
$SURFU
 70
     6
  9
$SURFV
 70
     6
  9
$UCSNAME
  2

  9
$UCSORG
 10
0.0
 20
0.0
 30
0.0
  9
$UCSXDIR
 10
1.0
 20
0.0
 30
0.0
  9
$UCSYDIR
 10
0.0
 20
1.0
 30
0.0
  9
$PUCSNAME
  2

  9
$PUCSORG
 10
0.0
 20
0.0
 30
0.0
  9
$PUCSXDIR
 10
1.0
 20
0.0
 30
0.0
  9
$PUCSYDIR
 10
0.0
 20
1.0
 30
0.0
  9
$USERI1
 70
     0
  9
$USERI2
 70
     0
  9
$USERI3
 70
     0
  9
$USERI4
 70
     0
  9
$USERI5
 70
     0
  9
$USERR1
 40
0.0
  9
$USERR2
 40
0.0
  9
$USERR3
 40
0.0
  9
$USERR4
 40
0.0
  9
$USERR5
 40
0.0
  9
$WORLDVIEW
 70
     1
  9
$SHADEDGE
 70
     3
  9
$SHADEDIF
 70
    70
  9
$TILEMODE
 70
     1
  9
$MAXACTVP
 70
    16
  9
$PINSBASE
 10
0.0
 20
0.0
 30
0.0
  9
$PLIMCHECK
 70
     0
  9
$PEXTMIN
 10
1.000000E+20
 20
1.000000E+20
 30
1.000000E+20
  9
$PEXTMAX
 10
-1.000000E+20
 20
-1.000000E+20
 30
-1.000000E+20
  9
$PLIMMIN
 10
0.0
 20
0.0
  9
$PLIMMAX
 10
12.0
 20
9.0
  9
$UNITMODE
 70
     0
  9
$VISRETAIN
 70
     0
  9
$PLINEGEN
 70
     0
  9
$PSLTSCALE
 70
     0
  9
$TREEDEPTH
 70
  3020
  9
$DWGCODEPAGE
  3
iso8859-1
  0
ENDSEC
  0
SECTION
  2
TABLES
  0
TABLE
  2
VPORT
 70
     1
  0
VPORT
  2
*ACTIVE
 70
     0
 10
0.0
 20
0.0
 11
1.0
 21
1.0
 12
217.168647
 22
-11.526396
 13
0.0
 23
0.0
 14
1.0
 24
1.0
 15
10.0
 25
10.0
 16
0.0
 26
0.0
 36
1.0
 17
0.0
 27
0.0
 37
0.0
 40
14.85
 41
1.611024
 42
50.0
 43
0.0
 44
0.0
 50
0.0
 51
0.0
 71
     0
 72
   100
 73
     1
 74
     0
 75
     0
 76
     0
 77
     0
 78
     2
  0
ENDTAB
  0
TABLE
  2
LTYPE
 70
     1
  0
LTYPE
  2
CONTINUOUS
 70
    64
  3
Solid line
 72
    65
 73
     0
 40
0.0
  0
ENDTAB
  0
TABLE
  2
LAYER
 70
     2
  0
LAYER
  2
0
 70
    64
 62
     7
  6
CONTINUOUS
  0
LAYER
  2
MESURA
 70
    64
 62
     7
  6
CONTINUOUS
  0
ENDTAB
  0
TABLE
  2
STYLE
 70
     2
  0
STYLE
  2
STANDARD
 70
     0
 40
0.0
 41
1.0
 50
0.0
 71
     0
 42
0.1
  3
txt
  4

  0
STYLE
  2
ROMANC
 70
    64
 40
0.0
 41
1.0
 50
0.0
 71
     0
 42
0.1
  3
romanc
  4

  0
ENDTAB
  0
TABLE
  2
VIEW
 70
     0
  0
ENDTAB
  0
TABLE
  2
UCS
 70
     0
  0
ENDTAB
  0
TABLE
  2
APPID
 70
     1
  0
APPID
  2
ACAD
 70
    64
  0
ENDTAB
  0
TABLE
  2
DIMSTYLE
 70
     0
  0
ENDTAB
  0
ENDSEC
  0
SECTION
  2
BLOCKS
  0
ENDSEC
  0
SECTION
  2
ENTITIES
  0
LINE
  8
0
 10
205.206796
 20
-4.101396
 30
0.0
 11
205.206796
 21
-18.951396
 31
0.0
  0
LINE
  8
0
 10
215.706796
 20
-18.951396
 30
0.0
 11
215.706796
 21
-4.101396
 31
0.0
  0
LINE
  8
0
 10
205.206796
 20
-18.951396
 30
0.0
 11
215.706796
 21
-18.951396
 31
0.0
  0
POLYLINE
  8
0
 66
     1
 10
0.0
 20
0.0
 30
0.0
 70
     1
  0
VERTEX
  8
0
 10
211.246457
 20
-13.979393
 30
0.0
 42
0.110825
  0
VERTEX
  8
0
 10
211.178926
 20
-13.677626
 30
0.0
 42
0.102731
  0
VERTEX
  8
0
 10
210.97945
 20
-13.412846
 30
0.0
 42
0.093187
 70
     2
 50
138.724058
  0
VERTEX
  8
0
 10
210.689473
 20
-13.241161
 30
0.0
 42
0.087404
 50
138.724058
  0
VERTEX
  8
0
 10
210.336457
 20
-13.178976
 30
0.0
 42
0.087404
  0
VERTEX
  8
0
 10
209.983442
 20
-13.241161
 30
0.0
 42
0.093187
  0
VERTEX
  8
0
 10
209.693465
 20
-13.412846
 30
0.0
 42
0.102731
 70
     2
 50
221.275942
  0
VERTEX
  8
0
 10
209.493989
 20
-13.677626
 30
0.0
 42
0.110825
 50
221.275942
  0
VERTEX
  8
0
 10
209.426458
 20
-13.979393
 30
0.0
  0
VERTEX
  8
0
 10
209.502256
 20
-14.888976
 30
0.0
  0
VERTEX
  8
0
 10
209.976565
 20
-14.888976
 30
0.0
 42
0.081746
  0
VERTEX
  8
0
 10
210.004354
 20
-15.037812
 30
0.0
 42
0.093047
  0
VERTEX
  8
0
 10
210.081444
 20
-15.168404
 30
0.0
 42
0.102819
 70
     2
 50
311.185925
  0
VERTEX
  8
0
 10
210.20062
 20
-15.258448
 30
0.0
 42
0.110985
 50
311.185925
  0
VERTEX
  8
0
 10
210.336457
 20
-15.288976
 30
0.0
 42
0.110985
  0
VERTEX
  8
0
 10
210.472295
 20
-15.258448
 30
0.0
 42
0.102819
  0
VERTEX
  8
0
 10
210.591471
 20
-15.168404
 30
0.0
 42
0.093047
 70
     2
 50
48.814075
  0
VERTEX
  8
0
 10
210.668561
 20
-15.037812
 30
0.0
 42
0.081746
 50
48.814075
  0
VERTEX
  8
0
 10
210.69635
 20
-14.888976
 30
0.0
  0
VERTEX
  8
0
 10
211.170659
 20
-14.888976
 30
0.0
  0
SEQEND
  8
0
  0
POLYLINE
  8
0
 66
     1
 10
0.0
 20
0.0
 30
0.0
 70
     1
  0
VERTEX
  8
0
 10
211.226457
 20
-13.978562
 30
0.0
 42
0.110522
  0
VERTEX
  8
0
 10
211.160839
 20
-13.686161
 30
0.0
 42
0.102731
  0
VERTEX
  8
0
 10
210.966257
 20
-13.427877
 30
0.0
 42
0.093187
 70
     2
 50
138.724058
  0
VERTEX
  8
0
 10
210.682639
 20
-13.259957
 30
0.0
 42
0.087404
 50
138.724058
  0
VERTEX
  8
0
 10
210.336457
 20
-13.198976
 30
0.0
 42
0.087404
  0
VERTEX
  8
0
 10
209.990276
 20
-13.259957
 30
0.0
 42
0.093187
  0
VERTEX
  8
0
 10
209.706658
 20
-13.427877
 30
0.0
 42
0.102731
 70
     2
 50
221.275942
  0
VERTEX
  8
0
 10
209.512076
 20
-13.686161
 30
0.0
 42
0.110522
 50
221.275942
  0
VERTEX
  8
0
 10
209.446458
 20
-13.978562
 30
0.0
  0
VERTEX
  8
0
 10
209.520659
 20
-14.868976
 30
0.0
  0
VERTEX
  8
0
 10
209.99657
 20
-14.868976
 30
0.0
 42
0.092797
  0
VERTEX
  8
0
 10
210.023157
 20
-15.030997
 30
0.0
 42
0.093047
  0
VERTEX
  8
0
 10
210.096496
 20
-15.155234
 30
0.0
 42
0.102819
 70
     2
 50
311.185925
  0
VERTEX
  8
0
 10
210.209178
 20
-15.240371
 30
0.0
 42
0.110985
 50
311.185925
  0
VERTEX
  8
0
 10
210.336457
 20
-15.268976
 30
0.0
 42
0.110985
  0
VERTEX
  8
0
 10
210.463737
 20
-15.240371
 30
0.0
 42
0.102819
  0
VERTEX
  8
0
 10
210.576419
 20
-15.155234
 30
0.0
 42
0.093047
 70
     2
 50
48.814075
  0
VERTEX
  8
0
 10
210.649758
 20
-15.030997
 30
0.0
 42
0.092797
 50
48.814075
  0
VERTEX
  8
0
 10
210.676345
 20
-14.868976
 30
0.0
  0
VERTEX
  8
0
 10
211.152256
 20
-14.868976
 30
0.0
  0
SEQEND
  8
0
  0
POLYLINE
  8
0
 66
     1
 10
0.0
 20
0.0
 30
0.0
 70
     1
  0
VERTEX
  8
0
 10
211.236457
 20
-13.978976
 30
0.0
 42
0.110675
  0
VERTEX
  8
0
 10
211.169883
 20
-13.681894
 30
0.0
 42
0.102731
  0
VERTEX
  8
0
 10
210.972854
 20
-13.420362
 30
0.0
 42
0.093187
 70
     2
 50
138.724058
  0
VERTEX
  8
0
 10
210.686056
 20
-13.250559
 30
0.0
 42
0.087404
 50
138.724058
  0
VERTEX
  8
0
 10
210.336457
 20
-13.188976
 30
0.0
 42
0.087404
  0
VERTEX
  8
0
 10
209.986859
 20
-13.250559
 30
0.0
 42
0.093187
  0
VERTEX
  8
0
 10
209.700061
 20
-13.420362
 30
0.0
 42
0.102731
 70
     2
 50
221.275942
  0
VERTEX
  8
0
 10
209.503032
 20
-13.681894
 30
0.0
 42
0.110675
 50
221.275942
  0
VERTEX
  8
0
 10
209.436457
 20
-13.978976
 30
0.0
  0
VERTEX
  8
0
 10
209.511457
 20
-14.878976
 30
0.0
  0
VERTEX
  8
0
 10
209.986457
 20
-14.878976
 30
0.0
 42
0.087147
  0
VERTEX
  8
0
 10
210.013755
 20
-15.034405
 30
0.0
 42
0.093047
  0
VERTEX
  8
0
 10
210.08897
 20
-15.161819
 30
0.0
 42
0.102819
 70
     2
 50
311.185925
  0
VERTEX
  8
0
 10
210.204899
 20
-15.24941
 30
0.0
 42
0.110985
 50
311.185925
  0
VERTEX
  8
0
 10
210.336457
 20
-15.278976
 30
0.0
 42
0.110985
  0
VERTEX
  8
0
 10
210.468016
 20
-15.24941
 30
0.0
 42
0.102819
  0
VERTEX
  8
0
 10
210.583945
 20
-15.161819
 30
0.0
 42
0.093047
 70
     2
 50
48.814075
  0
VERTEX
  8
0
 10
210.65916
 20
-15.034405
 30
0.0
 42
0.087147
 50
48.814075
  0
VERTEX
  8
0
 10
210.686457
 20
-14.878976
 30
0.0
  0
VERTEX
  8
0
 10
211.161457
 20
-14.878976
 30
0.0
  0
SEQEND
  8
0
  0
TEXT
  8
0
 10
210.23723
 20
-12.307857
 30
0.0
 40
0.1
  1
1.8
  7
ROMANC
  0
LINE
  8
MESURA
  6
BYBLOCK
 62
     0
 10
209.411457
 20
-16.030385
 30
0.0
 11
209.611457
 21
-15.830385
 31
0.0
  0
LINE
  8
MESURA
  6
BYBLOCK
 62
     0
 10
211.061457
 20
-16.030385
 30
0.0
 11
211.261457
 21
-15.830385
 31
0.0
  0
LINE
  8
MESURA
  6
BYBLOCK
 62
     0
 10
209.336457
 20
-12.586358
 30
0.0
 11
209.536457
 21
-12.386358
 31
0.0
  0
LINE
  8
MESURA
  6
BYBLOCK
 62
     0
 10
211.136457
 20
-12.586358
 30
0.0
 11
211.336457
 21
-12.386358
 31
0.0
  0
LINE
  8
0
 10
211.236457
 20
-13.978976
 30
0.0
 11
211.236457
 21
-12.486358
 31
0.0
  0
LINE
  8
0
 10
209.436457
 20
-13.978976
 30
0.0
 11
209.436457
 21
-12.486358
 31
0.0
  0
LINE
  8
0
 10
209.436457
 20
-12.486358
 30
0.0
 11
211.236457
 21
-12.486358
 31
0.0
  0
LINE
  8
0
 10
211.161457
 20
-14.878976
 30
0.0
 11
211.161457
 21
-15.930385
 31
0.0
  0
LINE
  8
0
 10
209.511457
 20
-14.878976
 30
0.0
 11
209.511457
 21
-15.930385
 31
0.0
  0
LINE
  8
0
 10
209.511457
 20
-15.930385
 30
0.0
 11
211.161457
 21
-15.930385
 31
0.0
  0
TEXT
  8
0
 10
210.22613
 20
-16.160519
 30
0.0
 40
0.1
  1
1.65
  7
ROMANC
  0
TEXT
  8
0
 10
210.22613
 20
-15.573793
 30
0.0
 40
0.1
  1
0.7
  7
ROMANC
  0
TEXT
  8
0
 10
211.651964
 20
-15.070885
 30
0.0
 40
0.1
  1
0.4
  7
ROMANC
  0
TEXT
  8
0
 10
211.624006
 20
-14.42828
 30
0.0
 40
0.1
  1
0.9
  7
ROMANC
  0
TEXT
  8
0
 10
212.239072
 20
-14.232704
 30
0.0
 40
0.1
  1
2.09
  7
ROMANC
  0
LINE
  8
MESURA
  6
BYBLOCK
 62
     0
 10
209.886457
 20
-15.478976
 30
0.0
 11
210.086457
 21
-15.278976
 31
0.0
  0
LINE
  8
MESURA
  6
BYBLOCK
 62
     0
 10
210.586457
 20
-15.478976
 30
0.0
 11
210.786457
 21
-15.278976
 31
0.0
  0
LINE
  8
MESURA
  6
BYBLOCK
 62
     0
 10
211.436457
 20
-14.078976
 30
0.0
 11
211.636457
 21
-13.878976
 31
0.0
  0
LINE
  8
MESURA
  6
BYBLOCK
 62
     0
 10
211.436457
 20
-14.978976
 30
0.0
 11
211.636457
 21
-14.778976
 31
0.0
  0
LINE
  8
MESURA
  6
BYBLOCK
 62
     0
 10
211.436457
 20
-15.378976
 30
0.0
 11
211.636457
 21
-15.178976
 31
0.0
  0
LINE
  8
MESURA
  6
BYBLOCK
 62
     0
 10
211.936457
 20
-15.378976
 30
0.0
 11
212.136457
 21
-15.178976
 31
0.0
  0
LINE
  8
MESURA
  6
BYBLOCK
 62
     0
 10
211.936457
 20
-13.288976
 30
0.0
 11
212.136457
 21
-13.088976
 31
0.0
  0
LINE
  8
0
 10
211.536457
 20
-15.278976
 30
0.0
 11
212.036457
 21
-15.278976
 31
0.0
  0
LINE
  8
0
 10
210.336457
 20
-15.278976
 30
0.0
 11
211.536457
 21
-15.278976
 31
0.0
  0
LINE
  8
0
 10
211.161457
 20
-14.878976
 30
0.0
 11
211.536457
 21
-14.878976
 31
0.0
  0
LINE
  8
0
 10
211.236457
 20
-13.978976
 30
0.0
 11
211.536457
 21
-13.978976
 31
0.0
  0
LINE
  8
0
 10
210.336457
 20
-13.188976
 30
0.0
 11
212.036457
 21
-13.188976
 31
0.0
  0
LINE
  8
0
 10
210.686457
 20
-14.878976
 30
0.0
 11
210.686457
 21
-15.378976
 31
0.0
  0
LINE
  8
0
 10
209.986457
 20
-14.878976
 30
0.0
 11
209.986457
 21
-15.378976
 31
0.0
  0
LINE
  8
0
 10
209.511457
 20
-15.378976
 30
0.0
 11
211.161457
 21
-15.378976
 31
0.0
  0
LINE
  8
0
 10
212.036457
 20
-13.188976
 30
0.0
 11
212.036457
 21
-15.278976
 31
0.0
  0
LINE
  8
0
 10
211.536457
 20
-13.188976
 30
0.0
 11
211.536457
 21
-15.278976
 31
0.0
  0
POLYLINE
  8
0
 66
     1
 10
0.0
 20
0.0
 30
0.0
  0
VERTEX
  8
0
 10
209.436457
 20
-13.978976
 30
0.0
 42
0.110675
  0
VERTEX
  8
0
 10
209.436457
 20
-13.978976
 30
0.0
 42
0.110675
  0
SEQEND
  8
0
  0
LINE
  8
0
 10
215.706796
 20
-4.101396
 30
0.0
 11
205.206796
 21
-4.101396
 31
0.0
  0
TEXT
  8
0
 10
207.757518
 20
-8.202067
 30
0.0
 40
0.3
  1
P = 65.9 dm
  7
ROMANC
  0
TEXT
  8
0
 10
207.736769
 20
-6.505537
 30
0.0
 40
0.3
  1
TIPUS   NT289
  7
ROMANC
  0
TEXT
  8
0
 10
207.749863
 20
-7.589841
 30
0.0
 40
0.3
  1
S =  289 dm
  7
ROMANC
  0
TEXT
  8
0
 10
207.736769
 20
-6.991251
 30
0.0
 40
0.3
  1
ESCALA  1:50
  7
ROMANC
  0
TEXT
  8
0
 10
211.257694
 20
-7.283925
 30
0.0
 40
0.1
  1
2
  7
ROMANC
  0
LINE
  8
MESURA
  6
BYBLOCK
 62
     0
 10
211.436457
 20
-13.288976
 30
0.0
 11
211.636457
 21
-13.088976
 31
0.0
  0
TEXT
  8
0
 10
211.59833
 20
-13.641346
 30
0.0
 40
0.1
  1
0.79
  7
ROMANC
  0
TEXT
  8
0
 10
209.609901
 20
-15.573793
 30
0.0
 40
0.1
  1
0.48
  7
ROMANC
  0
TEXT
  8
0
 10
210.825241
 20
-15.573793
 30
0.0
 40
0.1
  1
0.48
  7
ROMANC
  0
ENDSEC
  0
EOF
