  0
SECTION
  2
HEADER
  9
$ACADVER
  1
AC1009
  9
$INSBASE
 10
105.464027
 20
-4.528761
 30
0.0
  9
$EXTMIN
 10
281.395795
 20
29.897444
 30
0.0
  9
$EXTMAX
 10
291.895795
 20
44.747444
 30
0.0
  9
$LIMMIN
 10
0.0
 20
0.0
  9
$LIMMAX
 10
410.0
 20
287.0
  9
$ORTHOMODE
 70
     0
  9
$REGENMODE
 70
     1
  9
$FILLMODE
 70
     1
  9
$QTEXTMODE
 70
     0
  9
$MIRRTEXT
 70
     1
  9
$DRAGMODE
 70
     2
  9
$LTSCALE
 40
25.0
  9
$OSMODE
 70
    32
  9
$ATTMODE
 70
     1
  9
$TEXTSIZE
 40
0.1
  9
$TRACEWID
 40
1.0
  9
$TEXTSTYLE
  7
ROMANC
  9
$CLAYER
  8
0
  9
$CELTYPE
  6
BYLAYER
  9
$CECOLOR
 62
   256
  9
$DIMSCALE
 40
1.5
  9
$DIMASZ
 40
0.1
  9
$DIMEXO
 40
0.01
  9
$DIMDLI
 40
7.0
  9
$DIMRND
 40
0.0
  9
$DIMDLE
 40
0.0
  9
$DIMEXE
 40
0.01
  9
$DIMTP
 40
0.0
  9
$DIMTM
 40
0.0
  9
$DIMTXT
 40
0.05
  9
$DIMCEN
 40
0.1
  9
$DIMTSZ
 40
0.0
  9
$DIMTOL
 70
     0
  9
$DIMLIM
 70
     0
  9
$DIMTIH
 70
     0
  9
$DIMTOH
 70
     0
  9
$DIMSE1
 70
     0
  9
$DIMSE2
 70
     0
  9
$DIMTAD
 70
     1
  9
$DIMZIN
 70
     0
  9
$DIMBLK
  1

  9
$DIMASO
 70
     1
  9
$DIMSHO
 70
     0
  9
$DIMPOST
  1

  9
$DIMAPOST
  1

  9
$DIMALT
 70
     0
  9
$DIMALTD
 70
     2
  9
$DIMALTF
 40
25.4
  9
$DIMLFAC
 40
1.0
  9
$DIMTOFL
 70
     1
  9
$DIMTVP
 40
0.0
  9
$DIMTIX
 70
     1
  9
$DIMSOXD
 70
     0
  9
$DIMSAH
 70
     0
  9
$DIMBLK1
  1

  9
$DIMBLK2
  1

  9
$DIMSTYLE
  2
*UNNAMED
  9
$DIMCLRD
 70
     0
  9
$DIMCLRE
 70
     0
  9
$DIMCLRT
 70
     0
  9
$DIMTFAC
 40
70.0
  9
$DIMGAP
 40
0.09
  9
$LUNITS
 70
     2
  9
$LUPREC
 70
     2
  9
$SKETCHINC
 40
1.0
  9
$FILLETRAD
 40
0.0
  9
$AUNITS
 70
     0
  9
$AUPREC
 70
     0
  9
$MENU
  1
acad
  9
$ELEVATION
 40
0.0
  9
$PELEVATION
 40
0.0
  9
$THICKNESS
 40
0.0
  9
$LIMCHECK
 70
     0
  9
$BLIPMODE
 70
     0
  9
$CHAMFERA
 40
0.0
  9
$CHAMFERB
 40
0.0
  9
$SKPOLY
 70
     0
  9
$TDCREATE
 40
2450305.554557986
  9
$TDUPDATE
 40
2450387.676653356
  9
$TDINDWG
 40
0.0040035880
  9
$TDUSRTIMER
 40
0.0040035880
  9
$USRTIMER
 70
     1
  9
$ANGBASE
 50
0.0
  9
$ANGDIR
 70
     0
  9
$PDMODE
 70
     0
  9
$PDSIZE
 40
0.0
  9
$PLINEWID
 40
0.0
  9
$COORDS
 70
     2
  9
$SPLFRAME
 70
     0
  9
$SPLINETYPE
 70
     6
  9
$SPLINESEGS
 70
     8
  9
$ATTDIA
 70
     0
  9
$ATTREQ
 70
     1
  9
$HANDLING
 70
     0
  9
$HANDSEED
  5
0
  9
$SURFTAB1
 70
     6
  9
$SURFTAB2
 70
     6
  9
$SURFTYPE
 70
     6
  9
$SURFU
 70
     6
  9
$SURFV
 70
     6
  9
$UCSNAME
  2

  9
$UCSORG
 10
0.0
 20
0.0
 30
0.0
  9
$UCSXDIR
 10
1.0
 20
0.0
 30
0.0
  9
$UCSYDIR
 10
0.0
 20
1.0
 30
0.0
  9
$PUCSNAME
  2

  9
$PUCSORG
 10
0.0
 20
0.0
 30
0.0
  9
$PUCSXDIR
 10
1.0
 20
0.0
 30
0.0
  9
$PUCSYDIR
 10
0.0
 20
1.0
 30
0.0
  9
$USERI1
 70
     0
  9
$USERI2
 70
     0
  9
$USERI3
 70
     0
  9
$USERI4
 70
     0
  9
$USERI5
 70
     0
  9
$USERR1
 40
0.0
  9
$USERR2
 40
0.0
  9
$USERR3
 40
0.0
  9
$USERR4
 40
0.0
  9
$USERR5
 40
0.0
  9
$WORLDVIEW
 70
     1
  9
$SHADEDGE
 70
     3
  9
$SHADEDIF
 70
    70
  9
$TILEMODE
 70
     1
  9
$MAXACTVP
 70
    16
  9
$PINSBASE
 10
0.0
 20
0.0
 30
0.0
  9
$PLIMCHECK
 70
     0
  9
$PEXTMIN
 10
1.000000E+20
 20
1.000000E+20
 30
1.000000E+20
  9
$PEXTMAX
 10
-1.000000E+20
 20
-1.000000E+20
 30
-1.000000E+20
  9
$PLIMMIN
 10
0.0
 20
0.0
  9
$PLIMMAX
 10
12.0
 20
9.0
  9
$UNITMODE
 70
     0
  9
$VISRETAIN
 70
     0
  9
$PLINEGEN
 70
     0
  9
$PSLTSCALE
 70
     0
  9
$TREEDEPTH
 70
  3020
  9
$DWGCODEPAGE
  3
iso8859-1
  0
ENDSEC
  0
SECTION
  2
TABLES
  0
TABLE
  2
VPORT
 70
     2
  0
VPORT
  2
*ACTIVE
 70
     0
 10
0.0
 20
0.0
 11
1.0
 21
1.0
 12
293.549035
 22
37.322444
 13
0.0
 23
0.0
 14
1.0
 24
1.0
 15
10.0
 25
10.0
 16
0.0
 26
0.0
 36
1.0
 17
0.0
 27
0.0
 37
0.0
 40
14.85
 41
1.6368
 42
50.0
 43
0.0
 44
0.0
 50
0.0
 51
0.0
 71
     0
 72
   100
 73
     1
 74
     0
 75
     0
 76
     0
 77
     0
 78
     1
  0
ENDTAB
  0
TABLE
  2
LTYPE
 70
     1
  0
LTYPE
  2
CONTINUOUS
 70
    64
  3
Solid line
 72
    65
 73
     0
 40
0.0
  0
ENDTAB
  0
TABLE
  2
LAYER
 70
     3
  0
LAYER
  2
0
 70
    64
 62
     7
  6
CONTINUOUS
  0
LAYER
  2
MESURA
 70
     0
 62
     7
  6
CONTINUOUS
  0
LAYER
  2
DEFPOINTS
 70
    64
 62
     7
  6
CONTINUOUS
  0
ENDTAB
  0
TABLE
  2
STYLE
 70
     2
  0
STYLE
  2
STANDARD
 70
    64
 40
0.0
 41
1.0
 50
0.0
 71
     0
 42
0.1
  3
txt
  4

  0
STYLE
  2
ROMANC
 70
    64
 40
0.0
 41
1.0
 50
0.0
 71
     0
 42
0.1
  3
romanc
  4

  0
ENDTAB
  0
TABLE
  2
VIEW
 70
     0
  0
ENDTAB
  0
TABLE
  2
UCS
 70
     0
  0
ENDTAB
  0
TABLE
  2
APPID
 70
     1
  0
APPID
  2
ACAD
 70
    64
  0
ENDTAB
  0
TABLE
  2
DIMSTYLE
 70
     1
  0
DIMSTYLE
  2
SILVIA
 70
     0
  3

  4

  5

  6

  7

 40
1.5
 41
0.1
 42
0.01
 43
7.0
 44
0.01
 45
0.0
 46
0.0
 47
0.0
 48
0.0
140
0.05
141
0.1
142
0.0
143
25.4
144
1.0
145
0.0
146
70.0
147
0.09
 71
     0
 72
     0
 73
     0
 74
     0
 75
     0
 76
     0
 77
     1
 78
     0
170
     0
171
     2
172
     1
173
     0
174
     1
175
     0
176
     0
177
     0
178
     0
  0
ENDTAB
  0
ENDSEC
  0
SECTION
  2
BLOCKS
  0
BLOCK
  8
0
  2
*D6
 70
    65
 10
0.0
 20
0.0
 30
0.0
  3
*D
  0
LINE
  8
0
  6
BYBLOCK
 62
     0
 10
285.253025
 20
35.184321
 30
0.0
 11
285.253025
 21
33.903576
 31
0.0
  0
LINE
  8
0
  6
BYBLOCK
 62
     0
 10
286.753025
 20
35.184321
 30
0.0
 11
286.753025
 21
33.903576
 31
0.0
  0
LINE
  8
0
  6
BYBLOCK
 62
     0
 10
285.403025
 20
33.918576
 30
0.0
 11
286.603025
 21
33.918576
 31
0.0
  0
SOLID
  8
0
  6
BYBLOCK
 62
     0
 10
285.403025
 20
33.943576
 30
0.0
 11
285.403025
 21
33.893576
 31
0.0
 12
285.253025
 22
33.918576
 32
0.0
 13
285.253025
 23
33.918576
 33
0.0
  0
SOLID
  8
0
  6
BYBLOCK
 62
     0
 10
286.603025
 20
33.943576
 30
0.0
 11
286.603025
 21
33.893576
 31
0.0
 12
286.753025
 22
33.918576
 32
0.0
 13
286.753025
 23
33.918576
 33
0.0
  0
TEXT
  8
0
  6
BYBLOCK
 62
     0
 10
285.872668
 20
33.956076
 30
0.0
 40
0.075
  1
1.50
  7
ROMANC
 72
     1
 11
286.003025
 21
33.993576
 31
0.0
 73
     2
  0
POINT
  8
DEFPOINTS
  6
BYBLOCK
 62
     0
 10
285.253025
 20
35.199321
 30
0.0
  0
POINT
  8
DEFPOINTS
  6
BYBLOCK
 62
     0
 10
286.753025
 20
35.199321
 30
0.0
  0
POINT
  8
DEFPOINTS
  6
BYBLOCK
 62
     0
 10
286.753025
 20
33.918576
 30
0.0
  0
ENDBLK
  8
0
  0
BLOCK
  8
0
  2
*D7
 70
    65
 10
0.0
 20
0.0
 30
0.0
  3
*D
  0
LINE
  8
0
  6
BYBLOCK
 62
     0
 10
285.953025
 20
35.184321
 30
0.0
 11
285.953025
 21
34.459605
 31
0.0
  0
LINE
  8
0
  6
BYBLOCK
 62
     0
 10
286.753025
 20
35.184321
 30
0.0
 11
286.753025
 21
34.459605
 31
0.0
  0
LINE
  8
0
  6
BYBLOCK
 62
     0
 10
286.103025
 20
34.474605
 30
0.0
 11
286.603025
 21
34.474605
 31
0.0
  0
SOLID
  8
0
  6
BYBLOCK
 62
     0
 10
286.103025
 20
34.499605
 30
0.0
 11
286.103025
 21
34.449605
 31
0.0
 12
285.953025
 22
34.474605
 32
0.0
 13
285.953025
 23
34.474605
 33
0.0
  0
SOLID
  8
0
  6
BYBLOCK
 62
     0
 10
286.603025
 20
34.499605
 30
0.0
 11
286.603025
 21
34.449605
 31
0.0
 12
286.753025
 22
34.474605
 32
0.0
 13
286.753025
 23
34.474605
 33
0.0
  0
TEXT
  8
0
  6
BYBLOCK
 62
     0
 10
286.228025
 20
34.512105
 30
0.0
 40
0.075
  1
0.80
  7
ROMANC
 72
     1
 11
286.353025
 21
34.549605
 31
0.0
 73
     2
  0
POINT
  8
DEFPOINTS
  6
BYBLOCK
 62
     0
 10
285.953025
 20
35.199321
 30
0.0
  0
POINT
  8
DEFPOINTS
  6
BYBLOCK
 62
     0
 10
286.753025
 20
35.199321
 30
0.0
  0
POINT
  8
DEFPOINTS
  6
BYBLOCK
 62
     0
 10
286.753025
 20
34.474605
 30
0.0
  0
ENDBLK
  8
0
  0
BLOCK
  8
0
  2
*D8
 70
    65
 10
0.0
 20
0.0
 30
0.0
  3
*D
  0
LINE
  8
0
  6
BYBLOCK
 62
     0
 10
286.393949
 20
34.798263
 30
0.0
 11
287.847164
 21
34.798263
 31
0.0
  0
LINE
  8
0
  6
BYBLOCK
 62
     0
 10
286.018025
 20
37.099321
 30
0.0
 11
287.847164
 21
37.099321
 31
0.0
  0
LINE
  8
0
  6
BYBLOCK
 62
     0
 10
287.832164
 20
34.948263
 30
0.0
 11
287.832164
 21
36.949321
 31
0.0
  0
SOLID
  8
0
  6
BYBLOCK
 62
     0
 10
287.807164
 20
34.948263
 30
0.0
 11
287.857164
 21
34.948263
 31
0.0
 12
287.832164
 22
34.798263
 32
0.0
 13
287.832164
 23
34.798263
 33
0.0
  0
SOLID
  8
0
  6
BYBLOCK
 62
     0
 10
287.807164
 20
36.949321
 30
0.0
 11
287.857164
 21
36.949321
 31
0.0
 12
287.832164
 22
37.099321
 32
0.0
 13
287.832164
 23
37.099321
 33
0.0
  0
TEXT
  8
0
  6
BYBLOCK
 62
     0
 10
287.794664
 20
35.823792
 30
0.0
 40
0.075
  1
2.30
 50
90.0
  7
ROMANC
 72
     1
 11
287.757164
 21
35.948792
 31
0.0
 73
     2
  0
POINT
  8
DEFPOINTS
  6
BYBLOCK
 62
     0
 10
286.378949
 20
34.798263
 30
0.0
  0
POINT
  8
DEFPOINTS
  6
BYBLOCK
 62
     0
 10
286.003025
 20
37.099321
 30
0.0
  0
POINT
  8
DEFPOINTS
  6
BYBLOCK
 62
     0
 10
287.832164
 20
37.099321
 30
0.0
  0
ENDBLK
  8
0
  0
BLOCK
  8
0
  2
*D9
 70
    65
 10
0.0
 20
0.0
 30
0.0
  3
*D
  0
LINE
  8
0
  6
BYBLOCK
 62
     0
 10
286.369037
 20
34.806562
 30
0.0
 11
287.20775
 21
34.806562
 31
0.0
  0
LINE
  8
0
  6
BYBLOCK
 62
     0
 10
286.768025
 20
35.199321
 30
0.0
 11
287.20775
 21
35.199321
 31
0.0
  0
LINE
  8
0
  6
BYBLOCK
 62
     0
 10
287.19275
 20
34.656562
 30
0.0
 11
287.19275
 21
34.506562
 31
0.0
  0
LINE
  8
0
  6
BYBLOCK
 62
     0
 10
287.19275
 20
35.349321
 30
0.0
 11
287.19275
 21
35.499321
 31
0.0
  0
SOLID
  8
0
  6
BYBLOCK
 62
     0
 10
287.16775
 20
34.656562
 30
0.0
 11
287.21775
 21
34.656562
 31
0.0
 12
287.19275
 22
34.806562
 32
0.0
 13
287.19275
 23
34.806562
 33
0.0
  0
SOLID
  8
0
  6
BYBLOCK
 62
     0
 10
287.16775
 20
35.349321
 30
0.0
 11
287.21775
 21
35.349321
 31
0.0
 12
287.19275
 22
35.199321
 32
0.0
 13
287.19275
 23
35.199321
 33
0.0
  0
LINE
  8
0
  6
BYBLOCK
 62
     0
 10
287.19275
 20
34.806562
 30
0.0
 11
287.19275
 21
35.199321
 31
0.0
  0
TEXT
  8
0
  6
BYBLOCK
 62
     0
 10
287.15525
 20
34.91187
 30
0.0
 40
0.075
  1
0.4
 50
90.0
  7
ROMANC
 72
     1
 11
287.11775
 21
35.002941
 31
0.0
 73
     2
  0
POINT
  8
DEFPOINTS
  6
BYBLOCK
 62
     0
 10
286.354037
 20
34.806562
 30
0.0
  0
POINT
  8
DEFPOINTS
  6
BYBLOCK
 62
     0
 10
286.753025
 20
35.199321
 30
0.0
  0
POINT
  8
DEFPOINTS
  6
BYBLOCK
 62
     0
 10
287.19275
 20
35.199321
 30
0.0
  0
ENDBLK
  8
0
  0
BLOCK
  8
0
  2
*D10
 70
    65
 10
0.0
 20
0.0
 30
0.0
  3
*D
  0
LINE
  8
0
  6
BYBLOCK
 62
     0
 10
286.768025
 20
35.199321
 30
0.0
 11
287.20775
 21
35.199321
 31
0.0
  0
LINE
  8
0
  6
BYBLOCK
 62
     0
 10
286.768025
 20
36.349321
 30
0.0
 11
287.20775
 21
36.349321
 31
0.0
  0
LINE
  8
0
  6
BYBLOCK
 62
     0
 10
287.19275
 20
35.349321
 30
0.0
 11
287.19275
 21
36.199321
 31
0.0
  0
SOLID
  8
0
  6
BYBLOCK
 62
     0
 10
287.16775
 20
35.349321
 30
0.0
 11
287.21775
 21
35.349321
 31
0.0
 12
287.19275
 22
35.199321
 32
0.0
 13
287.19275
 23
35.199321
 33
0.0
  0
SOLID
  8
0
  6
BYBLOCK
 62
     0
 10
287.16775
 20
36.199321
 30
0.0
 11
287.21775
 21
36.199321
 31
0.0
 12
287.19275
 22
36.349321
 32
0.0
 13
287.19275
 23
36.349321
 33
0.0
  0
TEXT
  8
0
  6
BYBLOCK
 62
     0
 10
287.15525
 20
35.643963
 30
0.0
 40
0.075
  1
1.15
 50
90.0
  7
ROMANC
 72
     1
 11
287.11775
 21
35.774321
 31
0.0
 73
     2
  0
POINT
  8
DEFPOINTS
  6
BYBLOCK
 62
     0
 10
286.753025
 20
35.199321
 30
0.0
  0
POINT
  8
DEFPOINTS
  6
BYBLOCK
 62
     0
 10
286.753025
 20
36.349321
 30
0.0
  0
POINT
  8
DEFPOINTS
  6
BYBLOCK
 62
     0
 10
287.19275
 20
36.349321
 30
0.0
  0
ENDBLK
  8
0
  0
BLOCK
  8
0
  2
*D11
 70
    65
 10
0.0
 20
0.0
 30
0.0
  3
*D
  0
LINE
  8
0
  6
BYBLOCK
 62
     0
 10
286.768025
 20
36.349321
 30
0.0
 11
287.20775
 21
36.349321
 31
0.0
  0
LINE
  8
0
  6
BYBLOCK
 62
     0
 10
286.018025
 20
37.099321
 30
0.0
 11
287.20775
 21
37.099321
 31
0.0
  0
LINE
  8
0
  6
BYBLOCK
 62
     0
 10
287.19275
 20
36.199321
 30
0.0
 11
287.19275
 21
36.049321
 31
0.0
  0
LINE
  8
0
  6
BYBLOCK
 62
     0
 10
287.19275
 20
37.249321
 30
0.0
 11
287.19275
 21
37.399321
 31
0.0
  0
SOLID
  8
0
  6
BYBLOCK
 62
     0
 10
287.16775
 20
36.199321
 30
0.0
 11
287.21775
 21
36.199321
 31
0.0
 12
287.19275
 22
36.349321
 32
0.0
 13
287.19275
 23
36.349321
 33
0.0
  0
SOLID
  8
0
  6
BYBLOCK
 62
     0
 10
287.16775
 20
37.249321
 30
0.0
 11
287.21775
 21
37.249321
 31
0.0
 12
287.19275
 22
37.099321
 32
0.0
 13
287.19275
 23
37.099321
 33
0.0
  0
LINE
  8
0
  6
BYBLOCK
 62
     0
 10
287.19275
 20
36.349321
 30
0.0
 11
287.19275
 21
37.099321
 31
0.0
  0
TEXT
  8
0
  6
BYBLOCK
 62
     0
 10
287.15525
 20
36.599321
 30
0.0
 40
0.075
  1
0.75
 50
90.0
  7
ROMANC
 72
     1
 11
287.11775
 21
36.724321
 31
0.0
 73
     2
  0
POINT
  8
DEFPOINTS
  6
BYBLOCK
 62
     0
 10
286.753025
 20
36.349321
 30
0.0
  0
POINT
  8
DEFPOINTS
  6
BYBLOCK
 62
     0
 10
286.003025
 20
37.099321
 30
0.0
  0
POINT
  8
DEFPOINTS
  6
BYBLOCK
 62
     0
 10
287.19275
 20
37.099321
 30
0.0
  0
ENDBLK
  8
0
  0
ENDSEC
  0
SECTION
  2
ENTITIES
  0
POLYLINE
  8
0
 66
     1
 10
0.0
 20
0.0
 30
0.0
  0
VERTEX
  8
0
 10
108.040631
 20
-16.548467
 30
0.0
 42
0.063415
  0
SEQEND
  8
0
  0
POLYLINE
  8
0
 66
     1
 10
0.0
 20
0.0
 30
0.0
  0
VERTEX
  8
0
 10
86.286488
 20
-15.036857
 30
0.0
 42
0.22708
  0
SEQEND
  8
0
  0
POLYLINE
  8
0
 66
     1
 10
0.0
 20
0.0
 30
0.0
  0
VERTEX
  8
0
 10
72.351426
 20
-14.976331
 30
0.0
 42
0.089446
  0
SEQEND
  8
0
  0
POLYLINE
  8
0
 66
     1
 10
0.0
 20
0.0
 30
0.0
  0
VERTEX
  8
0
 10
97.210524
 20
16.938509
 30
0.0
 42
0.05817
  0
SEQEND
  8
0
  0
POLYLINE
  8
0
 66
     1
 10
0.0
 20
0.0
 30
0.0
  0
VERTEX
  8
0
 10
121.196188
 20
17.602271
 30
0.0
 42
0.156162
  0
SEQEND
  8
0
  0
POLYLINE
  8
0
 66
     1
 10
0.0
 20
0.0
 30
0.0
  0
VERTEX
  8
0
 10
119.340696
 20
34.532686
 30
0.0
 42
0.283046
  0
SEQEND
  8
0
  0
POLYLINE
  8
0
 66
     1
 10
0.0
 20
0.0
 30
0.0
  0
VERTEX
  8
0
 10
157.359637
 20
32.54887
 30
0.0
 42
0.269827
  0
SEQEND
  8
0
  0
POLYLINE
  8
0
 66
     1
 10
0.0
 20
0.0
 30
0.0
  0
VERTEX
  8
0
 10
156.169702
 20
18.299763
 30
0.0
 42
0.066056
  0
SEQEND
  8
0
  0
POLYLINE
  8
0
 66
     1
 10
0.0
 20
0.0
 30
0.0
  0
VERTEX
  8
0
 10
168.512554
 20
1.430566
 30
0.0
 42
0.148501
  0
SEQEND
  8
0
  0
POLYLINE
  8
0
 66
     1
 10
0.0
 20
0.0
 30
0.0
  0
VERTEX
  8
0
 10
168.689549
 20
33.579487
 30
0.0
 42
0.08626
  0
SEQEND
  8
0
  0
POLYLINE
  8
0
 66
     1
 10
0.0
 20
0.0
 30
0.0
  0
VERTEX
  8
0
 10
180.209617
 20
34.197499
 30
0.0
 42
0.059446
  0
SEQEND
  8
0
  0
POLYLINE
  8
0
 66
     1
 10
0.0
 20
0.0
 30
0.0
  0
VERTEX
  8
0
 10
168.213495
 20
14.734069
 30
0.0
 42
0.06661
  0
SEQEND
  8
0
  0
POLYLINE
  8
0
 66
     1
 10
0.0
 20
0.0
 30
0.0
  0
VERTEX
  8
0
 10
180.09759
 20
16.643931
 30
0.0
 42
0.165716
  0
SEQEND
  8
0
  0
POLYLINE
  8
0
 66
     1
 10
0.0
 20
0.0
 30
0.0
  0
VERTEX
  8
0
 10
180.349774
 20
-12.199421
 30
0.0
 42
0.098491
  0
SEQEND
  8
0
  0
POLYLINE
  8
0
 66
     1
 10
0.0
 20
0.0
 30
0.0
  0
VERTEX
  8
0
 10
194.593929
 20
-14.402211
 30
0.0
 42
0.098491
  0
SEQEND
  8
0
  0
POLYLINE
  8
0
 66
     1
 10
0.0
 20
0.0
 30
0.0
  0
VERTEX
  8
0
 10
192.091391
 20
16.821986
 30
0.0
 42
0.129253
  0
SEQEND
  8
0
  0
LINE
  8
0
 10
291.895795
 20
29.897444
 30
0.0
 11
291.895795
 21
44.747444
 31
0.0
  0
TEXT
  8
0
 10
283.887846
 20
40.56142
 30
0.0
 40
0.3
  1
P = 66.1 dm
  7
ROMANC
  0
LINE
  8
0
 10
281.395795
 20
44.747444
 30
0.0
 11
281.395795
 21
29.897444
 31
0.0
  0
LINE
  8
0
 10
281.395795
 20
29.897444
 30
0.0
 11
291.895795
 21
29.897444
 31
0.0
  0
LINE
  8
0
 10
291.895795
 20
44.747444
 30
0.0
 11
281.395795
 21
44.747444
 31
0.0
  0
TEXT
  8
0
 10
287.122271
 20
41.564915
 30
0.0
 40
0.1
  1
2
  7
ROMANC
  0
TEXT
  8
0
 10
283.925768
 20
41.857589
 30
0.0
 40
0.3
  1
ESCALA  1:50
  7
ROMANC
  0
TEXT
  8
0
 10
283.925768
 20
42.343303
 30
0.0
 40
0.3
  1
TIPUS   NT286
  7
ROMANC
  0
TEXT
  8
0
 10
283.938862
 20
41.258999
 30
0.0
 40
0.3
  1
S=  286 dm
  7
ROMANC
  0
POLYLINE
  8
0
 66
     1
 10
0.0
 20
0.0
 30
0.0
  0
VERTEX
  8
0
 10
285.562002
 20
36.153868
 30
0.0
 42
0.113017
  0
SEQEND
  8
0
  0
POLYLINE
  8
0
 66
     1
 10
0.0
 20
0.0
 30
0.0
  0
VERTEX
  8
0
 10
285.562002
 20
36.153868
 30
0.0
 42
0.098491
  0
SEQEND
  8
0
  0
POLYLINE
  8
0
 66
     1
 10
0.0
 20
0.0
 30
0.0
  0
VERTEX
  8
0
 10
285.253025
 20
36.349321
 30
0.0
 42
0.098491
  0
SEQEND
  8
0
  0
ARC
  8
0
 10
286.353025
 20
35.199321
 30
0.0
 40
0.39
 50
178.530716
 51
202.5
  0
ARC
  8
0
 10
286.353025
 20
35.199321
 30
0.0
 40
0.39
 50
202.5
 51
225.0
  0
ARC
  8
0
 10
286.353025
 20
35.199321
 30
0.0
 40
0.39
 50
225.0
 51
247.5
  0
ARC
  8
0
 10
286.353025
 20
35.199321
 30
0.0
 40
0.39
 50
247.5
 51
270.0
  0
ARC
  8
0
 10
286.353025
 20
35.199321
 30
0.0
 40
0.39
 50
270.0
 51
292.5
  0
ARC
  8
0
 10
286.353025
 20
35.199321
 30
0.0
 40
0.39
 50
292.5
 51
315.0
  0
ARC
  8
0
 10
286.353025
 20
35.199321
 30
0.0
 40
0.39
 50
315.0
 51
337.5
  0
ARC
  8
0
 10
286.353025
 20
35.199321
 30
0.0
 40
0.39
 50
337.5
 51
360.0
  0
LINE
  8
0
 10
286.743025
 20
35.199321
 30
0.0
 11
286.743025
 21
36.349321
 31
0.0
  0
ARC
  8
0
 10
286.003025
 20
36.349321
 30
0.0
 40
0.74
 50
0.0
 51
22.5
  0
ARC
  8
0
 10
286.003025
 20
36.349321
 30
0.0
 40
0.74
 50
22.5
 51
45.0
  0
ARC
  8
0
 10
286.003025
 20
36.349321
 30
0.0
 40
0.74
 50
45.0
 51
67.5
  0
ARC
  8
0
 10
286.003025
 20
36.349321
 30
0.0
 40
0.74
 50
67.5
 51
90.0
  0
ARC
  8
0
 10
286.003025
 20
36.349321
 30
0.0
 40
0.74
 50
90.0
 51
112.5
  0
ARC
  8
0
 10
286.003025
 20
36.349321
 30
0.0
 40
0.74
 50
112.5
 51
135.0
  0
ARC
  8
0
 10
286.003025
 20
36.349321
 30
0.0
 40
0.74
 50
135.0
 51
157.5
  0
ARC
  8
0
 10
286.003025
 20
36.349321
 30
0.0
 40
0.74
 50
157.5
 51
180.0
  0
LINE
  8
0
 10
285.263025
 20
36.349321
 30
0.0
 11
285.263025
 21
35.209321
 31
0.0
  0
LINE
  8
0
 10
285.263025
 20
35.209321
 30
0.0
 11
285.963153
 21
35.209321
 31
0.0
  0
ARC
  8
0
 10
286.353025
 20
35.199321
 30
0.0
 40
0.41
 50
181.397597
 51
202.5
  0
ARC
  8
0
 10
286.353025
 20
35.199321
 30
0.0
 40
0.41
 50
202.5
 51
225.0
  0
ARC
  8
0
 10
286.353025
 20
35.199321
 30
0.0
 40
0.41
 50
225.0
 51
247.5
  0
ARC
  8
0
 10
286.353025
 20
35.199321
 30
0.0
 40
0.41
 50
247.5
 51
270.0
  0
ARC
  8
0
 10
286.353025
 20
35.199321
 30
0.0
 40
0.41
 50
270.0
 51
292.5
  0
ARC
  8
0
 10
286.353025
 20
35.199321
 30
0.0
 40
0.41
 50
292.5
 51
315.0
  0
ARC
  8
0
 10
286.353025
 20
35.199321
 30
0.0
 40
0.41
 50
315.0
 51
337.5
  0
ARC
  8
0
 10
286.353025
 20
35.199321
 30
0.0
 40
0.41
 50
337.5
 51
0.0
  0
LINE
  8
0
 10
286.763025
 20
35.199321
 30
0.0
 11
286.763025
 21
36.349321
 31
0.0
  0
ARC
  8
0
 10
286.003025
 20
36.349321
 30
0.0
 40
0.76
 50
360.0
 51
22.5
  0
ARC
  8
0
 10
286.003025
 20
36.349321
 30
0.0
 40
0.76
 50
22.5
 51
45.0
  0
ARC
  8
0
 10
286.003025
 20
36.349321
 30
0.0
 40
0.76
 50
45.0
 51
67.5
  0
ARC
  8
0
 10
286.003025
 20
36.349321
 30
0.0
 40
0.76
 50
67.5
 51
90.0
  0
ARC
  8
0
 10
286.003025
 20
36.349321
 30
0.0
 40
0.76
 50
90.0
 51
112.5
  0
ARC
  8
0
 10
286.003025
 20
36.349321
 30
0.0
 40
0.76
 50
112.5
 51
135.0
  0
ARC
  8
0
 10
286.003025
 20
36.349321
 30
0.0
 40
0.76
 50
135.0
 51
157.5
  0
ARC
  8
0
 10
286.003025
 20
36.349321
 30
0.0
 40
0.76
 50
157.5
 51
180.0
  0
LINE
  8
0
 10
285.243025
 20
36.349321
 30
0.0
 11
285.243025
 21
35.189321
 31
0.0
  0
LINE
  8
0
 10
285.243025
 20
35.189321
 30
0.0
 11
285.943147
 21
35.189321
 31
0.0
  0
ARC
  8
0
 10
286.353025
 20
35.199321
 30
0.0
 40
0.4
 50
180.0
 51
202.5
  0
ARC
  8
0
 10
286.353025
 20
35.199321
 30
0.0
 40
0.4
 50
202.5
 51
225.0
  0
ARC
  8
0
 10
286.353025
 20
35.199321
 30
0.0
 40
0.4
 50
225.0
 51
247.5
  0
ARC
  8
0
 10
286.353025
 20
35.199321
 30
0.0
 40
0.4
 50
247.5
 51
270.0
  0
ARC
  8
0
 10
286.353025
 20
35.199321
 30
0.0
 40
0.4
 50
270.0
 51
292.5
  0
ARC
  8
0
 10
286.353025
 20
35.199321
 30
0.0
 40
0.4
 50
292.5
 51
315.0
  0
ARC
  8
0
 10
286.353025
 20
35.199321
 30
0.0
 40
0.4
 50
315.0
 51
337.5
  0
ARC
  8
0
 10
286.353025
 20
35.199321
 30
0.0
 40
0.4
 50
337.5
 51
0.0
  0
LINE
  8
0
 10
286.753025
 20
35.199321
 30
0.0
 11
286.753025
 21
36.349321
 31
0.0
  0
ARC
  8
0
 10
286.003025
 20
36.349321
 30
0.0
 40
0.75
 50
0.0
 51
22.5
  0
ARC
  8
0
 10
286.003025
 20
36.349321
 30
0.0
 40
0.75
 50
22.5
 51
45.0
  0
ARC
  8
0
 10
286.003025
 20
36.349321
 30
0.0
 40
0.75
 50
45.0
 51
67.5
  0
ARC
  8
0
 10
286.003025
 20
36.349321
 30
0.0
 40
0.75
 50
67.5
 51
90.0
  0
ARC
  8
0
 10
286.003025
 20
36.349321
 30
0.0
 40
0.75
 50
90.0
 51
112.5
  0
ARC
  8
0
 10
286.003025
 20
36.349321
 30
0.0
 40
0.75
 50
112.5
 51
135.0
  0
ARC
  8
0
 10
286.003025
 20
36.349321
 30
0.0
 40
0.75
 50
135.0
 51
157.5
  0
ARC
  8
0
 10
286.003025
 20
36.349321
 30
0.0
 40
0.75
 50
157.5
 51
180.0
  0
LINE
  8
0
 10
285.253025
 20
36.349321
 30
0.0
 11
285.253025
 21
35.199321
 31
0.0
  0
LINE
  8
0
 10
285.253025
 20
35.199321
 30
0.0
 11
285.953025
 21
35.199321
 31
0.0
  0
LINE
  8
0
  6
BYBLOCK
 62
     0
 10
286.768025
 20
36.349321
 30
0.0
 11
287.20775
 21
36.349321
 31
0.0
  0
LINE
  8
0
  6
BYBLOCK
 62
     0
 10
286.018025
 20
37.099321
 30
0.0
 11
287.20775
 21
37.099321
 31
0.0
  0
LINE
  8
0
  6
BYBLOCK
 62
     0
 10
287.19275
 20
36.199321
 30
0.0
 11
287.19275
 21
36.049321
 31
0.0
  0
LINE
  8
0
  6
BYBLOCK
 62
     0
 10
287.19275
 20
37.249321
 30
0.0
 11
287.19275
 21
37.399321
 31
0.0
  0
SOLID
  8
0
  6
BYBLOCK
 62
     0
 10
287.16775
 20
36.199321
 30
0.0
 11
287.21775
 21
36.199321
 31
0.0
 12
287.19275
 22
36.349321
 32
0.0
 13
287.19275
 23
36.349321
 33
0.0
  0
SOLID
  8
0
  6
BYBLOCK
 62
     0
 10
287.16775
 20
37.249321
 30
0.0
 11
287.21775
 21
37.249321
 31
0.0
 12
287.19275
 22
37.099321
 32
0.0
 13
287.19275
 23
37.099321
 33
0.0
  0
LINE
  8
0
  6
BYBLOCK
 62
     0
 10
287.19275
 20
36.349321
 30
0.0
 11
287.19275
 21
37.099321
 31
0.0
  0
TEXT
  8
0
  6
BYBLOCK
 62
     0
 10
287.15525
 20
36.599321
 30
0.0
 40
0.075
  1
0.75
 50
90.0
  7
ROMANC
 72
     1
 11
287.11775
 21
36.724321
 31
0.0
 73
     2
  0
POINT
  8
DEFPOINTS
  6
BYBLOCK
 62
     0
 10
286.753025
 20
36.349321
 30
0.0
  0
POINT
  8
DEFPOINTS
  6
BYBLOCK
 62
     0
 10
286.003025
 20
37.099321
 30
0.0
  0
POINT
  8
DEFPOINTS
  6
BYBLOCK
 62
     0
 10
287.19275
 20
37.099321
 30
0.0
  0
LINE
  8
0
  6
BYBLOCK
 62
     0
 10
286.393949
 20
34.798263
 30
0.0
 11
287.847164
 21
34.798263
 31
0.0
  0
LINE
  8
0
  6
BYBLOCK
 62
     0
 10
286.018025
 20
37.099321
 30
0.0
 11
287.847164
 21
37.099321
 31
0.0
  0
LINE
  8
0
  6
BYBLOCK
 62
     0
 10
287.832164
 20
34.948263
 30
0.0
 11
287.832164
 21
36.949321
 31
0.0
  0
SOLID
  8
0
  6
BYBLOCK
 62
     0
 10
287.807164
 20
34.948263
 30
0.0
 11
287.857164
 21
34.948263
 31
0.0
 12
287.832164
 22
34.798263
 32
0.0
 13
287.832164
 23
34.798263
 33
0.0
  0
SOLID
  8
0
  6
BYBLOCK
 62
     0
 10
287.807164
 20
36.949321
 30
0.0
 11
287.857164
 21
36.949321
 31
0.0
 12
287.832164
 22
37.099321
 32
0.0
 13
287.832164
 23
37.099321
 33
0.0
  0
TEXT
  8
0
  6
BYBLOCK
 62
     0
 10
287.794664
 20
35.823792
 30
0.0
 40
0.075
  1
2.30
 50
90.0
  7
ROMANC
 72
     1
 11
287.757164
 21
35.948792
 31
0.0
 73
     2
  0
POINT
  8
DEFPOINTS
  6
BYBLOCK
 62
     0
 10
286.378949
 20
34.798263
 30
0.0
  0
POINT
  8
DEFPOINTS
  6
BYBLOCK
 62
     0
 10
286.003025
 20
37.099321
 30
0.0
  0
POINT
  8
DEFPOINTS
  6
BYBLOCK
 62
     0
 10
287.832164
 20
37.099321
 30
0.0
  0
LINE
  8
0
  6
BYBLOCK
 62
     0
 10
286.768025
 20
35.199321
 30
0.0
 11
287.20775
 21
35.199321
 31
0.0
  0
LINE
  8
0
  6
BYBLOCK
 62
     0
 10
286.768025
 20
36.349321
 30
0.0
 11
287.20775
 21
36.349321
 31
0.0
  0
LINE
  8
0
  6
BYBLOCK
 62
     0
 10
287.19275
 20
35.349321
 30
0.0
 11
287.19275
 21
36.199321
 31
0.0
  0
SOLID
  8
0
  6
BYBLOCK
 62
     0
 10
287.16775
 20
35.349321
 30
0.0
 11
287.21775
 21
35.349321
 31
0.0
 12
287.19275
 22
35.199321
 32
0.0
 13
287.19275
 23
35.199321
 33
0.0
  0
SOLID
  8
0
  6
BYBLOCK
 62
     0
 10
287.16775
 20
36.199321
 30
0.0
 11
287.21775
 21
36.199321
 31
0.0
 12
287.19275
 22
36.349321
 32
0.0
 13
287.19275
 23
36.349321
 33
0.0
  0
TEXT
  8
0
  6
BYBLOCK
 62
     0
 10
287.15525
 20
35.643963
 30
0.0
 40
0.075
  1
1.15
 50
90.0
  7
ROMANC
 72
     1
 11
287.11775
 21
35.774321
 31
0.0
 73
     2
  0
POINT
  8
DEFPOINTS
  6
BYBLOCK
 62
     0
 10
286.753025
 20
35.199321
 30
0.0
  0
POINT
  8
DEFPOINTS
  6
BYBLOCK
 62
     0
 10
286.753025
 20
36.349321
 30
0.0
  0
POINT
  8
DEFPOINTS
  6
BYBLOCK
 62
     0
 10
287.19275
 20
36.349321
 30
0.0
  0
LINE
  8
0
  6
BYBLOCK
 62
     0
 10
286.369037
 20
34.806562
 30
0.0
 11
287.20775
 21
34.806562
 31
0.0
  0
LINE
  8
0
  6
BYBLOCK
 62
     0
 10
286.768025
 20
35.199321
 30
0.0
 11
287.20775
 21
35.199321
 31
0.0
  0
LINE
  8
0
  6
BYBLOCK
 62
     0
 10
287.19275
 20
34.656562
 30
0.0
 11
287.19275
 21
34.506562
 31
0.0
  0
LINE
  8
0
  6
BYBLOCK
 62
     0
 10
287.19275
 20
35.349321
 30
0.0
 11
287.19275
 21
35.499321
 31
0.0
  0
SOLID
  8
0
  6
BYBLOCK
 62
     0
 10
287.16775
 20
34.656562
 30
0.0
 11
287.21775
 21
34.656562
 31
0.0
 12
287.19275
 22
34.806562
 32
0.0
 13
287.19275
 23
34.806562
 33
0.0
  0
SOLID
  8
0
  6
BYBLOCK
 62
     0
 10
287.16775
 20
35.349321
 30
0.0
 11
287.21775
 21
35.349321
 31
0.0
 12
287.19275
 22
35.199321
 32
0.0
 13
287.19275
 23
35.199321
 33
0.0
  0
LINE
  8
0
  6
BYBLOCK
 62
     0
 10
287.19275
 20
34.806562
 30
0.0
 11
287.19275
 21
35.199321
 31
0.0
  0
TEXT
  8
0
  6
BYBLOCK
 62
     0
 10
287.15525
 20
34.91187
 30
0.0
 40
0.075
  1
0.4
 50
90.0
  7
ROMANC
 72
     1
 11
287.11775
 21
35.002941
 31
0.0
 73
     2
  0
POINT
  8
DEFPOINTS
  6
BYBLOCK
 62
     0
 10
286.354037
 20
34.806562
 30
0.0
  0
POINT
  8
DEFPOINTS
  6
BYBLOCK
 62
     0
 10
286.753025
 20
35.199321
 30
0.0
  0
POINT
  8
DEFPOINTS
  6
BYBLOCK
 62
     0
 10
287.19275
 20
35.199321
 30
0.0
  0
LINE
  8
0
  6
BYBLOCK
 62
     0
 10
285.953025
 20
35.184321
 30
0.0
 11
285.953025
 21
34.459605
 31
0.0
  0
LINE
  8
0
  6
BYBLOCK
 62
     0
 10
286.753025
 20
35.184321
 30
0.0
 11
286.753025
 21
34.459605
 31
0.0
  0
LINE
  8
0
  6
BYBLOCK
 62
     0
 10
286.103025
 20
34.474605
 30
0.0
 11
286.603025
 21
34.474605
 31
0.0
  0
SOLID
  8
0
  6
BYBLOCK
 62
     0
 10
286.103025
 20
34.499605
 30
0.0
 11
286.103025
 21
34.449605
 31
0.0
 12
285.953025
 22
34.474605
 32
0.0
 13
285.953025
 23
34.474605
 33
0.0
  0
SOLID
  8
0
  6
BYBLOCK
 62
     0
 10
286.603025
 20
34.499605
 30
0.0
 11
286.603025
 21
34.449605
 31
0.0
 12
286.753025
 22
34.474605
 32
0.0
 13
286.753025
 23
34.474605
 33
0.0
  0
TEXT
  8
0
  6
BYBLOCK
 62
     0
 10
286.228025
 20
34.512105
 30
0.0
 40
0.075
  1
0.80
  7
ROMANC
 72
     1
 11
286.353025
 21
34.549605
 31
0.0
 73
     2
  0
POINT
  8
DEFPOINTS
  6
BYBLOCK
 62
     0
 10
285.953025
 20
35.199321
 30
0.0
  0
POINT
  8
DEFPOINTS
  6
BYBLOCK
 62
     0
 10
286.753025
 20
35.199321
 30
0.0
  0
POINT
  8
DEFPOINTS
  6
BYBLOCK
 62
     0
 10
286.753025
 20
34.474605
 30
0.0
  0
LINE
  8
0
  6
BYBLOCK
 62
     0
 10
285.253025
 20
35.184321
 30
0.0
 11
285.253025
 21
33.903576
 31
0.0
  0
LINE
  8
0
  6
BYBLOCK
 62
     0
 10
286.753025
 20
35.184321
 30
0.0
 11
286.753025
 21
33.903576
 31
0.0
  0
LINE
  8
0
  6
BYBLOCK
 62
     0
 10
285.403025
 20
33.918576
 30
0.0
 11
286.603025
 21
33.918576
 31
0.0
  0
SOLID
  8
0
  6
BYBLOCK
 62
     0
 10
285.403025
 20
33.943576
 30
0.0
 11
285.403025
 21
33.893576
 31
0.0
 12
285.253025
 22
33.918576
 32
0.0
 13
285.253025
 23
33.918576
 33
0.0
  0
SOLID
  8
0
  6
BYBLOCK
 62
     0
 10
286.603025
 20
33.943576
 30
0.0
 11
286.603025
 21
33.893576
 31
0.0
 12
286.753025
 22
33.918576
 32
0.0
 13
286.753025
 23
33.918576
 33
0.0
  0
TEXT
  8
0
  6
BYBLOCK
 62
     0
 10
285.872668
 20
33.956076
 30
0.0
 40
0.075
  1
1.50
  7
ROMANC
 72
     1
 11
286.003025
 21
33.993576
 31
0.0
 73
     2
  0
POINT
  8
DEFPOINTS
  6
BYBLOCK
 62
     0
 10
285.253025
 20
35.199321
 30
0.0
  0
POINT
  8
DEFPOINTS
  6
BYBLOCK
 62
     0
 10
286.753025
 20
35.199321
 30
0.0
  0
POINT
  8
DEFPOINTS
  6
BYBLOCK
 62
     0
 10
286.753025
 20
33.918576
 30
0.0
  0
ENDSEC
  0
EOF
