  0
SECTION
  2
HEADER
  9
$ACADVER
  1
AC1009
  9
$INSBASE
 10
0.0
 20
0.0
 30
0.0
  9
$EXTMIN
 10
281.396000
 20
29.897000
 30
-2147483.648000
  9
$EXTMAX
 10
291.896000
 20
44.747000
 30
0.000000
  9
$LIMMIN
 10
280.396000
 20
28.897000
  9
$LIMMAX
 10
292.896000
 20
43.747000
  9
$ORTHOMODE
 70
     0
  9
$REGENMODE
 70
     1
  9
$FILLMODE
 70
     1
  9
$QTEXTMODE
 70
     0
  9
$MIRRTEXT
 70
     1
  9
$DRAGMODE
 70
     2
  9
$LTSCALE
 40
1.0
  9
$OSMODE
 70
     0
  9
$ATTMODE
 70
     1
  9
$TEXTSIZE
 40
0.2
  9
$TRACEWID
 40
0.05
  9
$TEXTSTYLE
  7
STANDARD
  9
$CLAYER
  8
0
  9
$CELTYPE
  6
BYLAYER
  9
$CECOLOR
 62
   256
  9
$DIMSCALE
 40
1.0
  9
$DIMASZ
 40
0.18
  9
$DIMEXO
 40
0.0625
  9
$DIMDLI
 40
0.38
  9
$DIMRND
 40
0.0
  9
$DIMDLE
 40
0.0
  9
$DIMEXE
 40
0.18
  9
$DIMTP
 40
0.0
  9
$DIMTM
 40
0.0
  9
$DIMTXT
 40
0.18
  9
$DIMCEN
 40
0.09
  9
$DIMTSZ
 40
0.0
  9
$DIMTOL
 70
     0
  9
$DIMLIM
 70
     0
  9
$DIMTIH
 70
     1
  9
$DIMTOH
 70
     1
  9
$DIMSE1
 70
     0
  9
$DIMSE2
 70
     0
  9
$DIMTAD
 70
     0
  9
$DIMZIN
 70
     0
  9
$DIMBLK
  1

  9
$DIMASO
 70
     1
  9
$DIMSHO
 70
     1
  9
$DIMPOST
  1

  9
$DIMAPOST
  1

  9
$DIMALT
 70
     0
  9
$DIMALTD
 70
     2
  9
$DIMALTF
 40
25.4
  9
$DIMLFAC
 40
1.0
  9
$DIMTOFL
 70
     0
  9
$DIMTVP
 40
0.0
  9
$DIMTIX
 70
     0
  9
$DIMSOXD
 70
     0
  9
$DIMSAH
 70
     0
  9
$DIMBLK1
  1

  9
$DIMBLK2
  1

  9
$DIMSTYLE
  2
*UNNAMED
  9
$DIMCLRD
 70
     0
  9
$DIMCLRE
 70
     0
  9
$DIMCLRT
 70
     0
  9
$DIMTFAC
 40
1.0
  9
$DIMGAP
 40
0.09
  9
$LUNITS
 70
     2
  9
$LUPREC
 70
     4
  9
$AXISMODE
 70
     0
  9
$AXISUNIT
 10
0.0
 20
0.0
  9
$SKETCHINC
 40
0.1
  9
$FILLETRAD
 40
0.0
  9
$AUNITS
 70
     0
  9
$AUPREC
 70
     0
  9
$MENU
  1
acad
  9
$ELEVATION
 40
0.0
  9
$PELEVATION
 40
0.0
  9
$THICKNESS
 40
0.0
  9
$LIMCHECK
 70
     0
  9
$BLIPMODE
 70
     1
  9
$CHAMFERA
 40
0.0
  9
$CHAMFERB
 40
0.0
  9
$SKPOLY
 70
     0
  9
$TDCREATE
 40
2448315.373408102
  9
$TDUPDATE
 40
2448315.373408102
  9
$TDINDWG
 40
0.0000000000
  9
$TDUSRTIMER
 40
0.0000000000
  9
$USRTIMER
 70
     1
  9
$ANGBASE
 50
0.0
  9
$ANGDIR
 70
     0
  9
$PDMODE
 70
     0
  9
$PDSIZE
 40
0.0
  9
$PLINEWID
 40
0.0
  9
$COORDS
 70
     0
  9
$SPLFRAME
 70
     0
  9
$SPLINETYPE
 70
     6
  9
$SPLINESEGS
 70
     8
  9
$ATTDIA
 70
     0
  9
$ATTREQ
 70
     1
  9
$HANDLING
 70
     0
  9
$HANDSEED
  5
0
  9
$SURFTAB1
 70
     6
  9
$SURFTAB2
 70
     6
  9
$SURFTYPE
 70
     6
  9
$SURFU
 70
     6
  9
$SURFV
 70
     6
  9
$UCSNAME
  2

  9
$UCSORG
 10
0.0
 20
0.0
 30
0.0
  9
$UCSXDIR
 10
1.0
 20
0.0
 30
0.0
  9
$UCSYDIR
 10
0.0
 20
1.0
 30
0.0
  9
$PUCSNAME
  2

  9
$PUCSORG
 10
0.0
 20
0.0
 30
0.0
  9
$PUCSXDIR
 10
1.0
 20
0.0
 30
0.0
  9
$PUCSYDIR
 10
0.0
 20
1.0
 30
0.0
  9
$USERI1
 70
     0
  9
$USERI2
 70
     0
  9
$USERI3
 70
     0
  9
$USERI4
 70
     0
  9
$USERI5
 70
     0
  9
$USERR1
 40
0.0
  9
$USERR2
 40
0.0
  9
$USERR3
 40
0.0
  9
$USERR4
 40
0.0
  9
$USERR5
 40
0.0
  9
$WORLDVIEW
 70
     1
  9
$SHADEDGE
 70
     3
  9
$SHADEDIF
 70
    70
  9
$TILEMODE
 70
     1
  9
$MAXACTVP
 70
    16
  9
$PINSBASE
 10
0.0
 20
0.0
 30
0.0
  9
$PLIMCHECK
 70
     0
  9
$PEXTMIN
 10
1.000000E+20
 20
1.000000E+20
 30
1.000000E+20
  9
$PEXTMAX
 10
-1.000000E+20
 20
-1.000000E+20
 30
-1.000000E+20
  9
$PLIMMIN
 10
0.0
 20
0.0
  9
$PLIMMAX
 10
12.0
 20
9.0
  9
$UNITMODE
 70
     0
  9
$VISRETAIN
 70
     0
  0
ENDSEC
  0
SECTION
  2
TABLES
  0
TABLE
  2
LTYPE
 70
    1
  0
LTYPE
  2
CONTINUOUS
 70
    64
3
Solid line
 72
    65
 73
0
 40
0.000000
  0
ENDTAB
  0
TABLE
  2
LAYER
 70
    8
  0
LAYER
  2
0
 70
    64
 62
7
  6
CONTINUOUS
  0
LAYER
  2
1
 70
    64
 62
7
  6
CONTINUOUS
  0
LAYER
  2
7
 70
    64
 62
7
  6
CONTINUOUS
  0
LAYER
  2
8
 70
    64
 62
7
  6
CONTINUOUS
  0
LAYER
  2
9
 70
    64
 62
7
  6
CONTINUOUS
  0
LAYER
  2
22
 70
    64
 62
7
  6
CONTINUOUS
  0
LAYER
  2
25
 70
    64
 62
7
  6
CONTINUOUS
  0
LAYER
  2
0
 70
    64
 62
7
  6
CONTINUOUS
  0
ENDTAB
  0
TABLE
  2
STYLE
 70
    1
  0
STYLE
  2
ROMANC
70
     0
 40
0.0
 41
1.0
 50
0.0
 71
     0
 42
0.2
  3
ROMANC
  4

  0
ENDTAB
  0
ENDSEC
  0
SECTION
  2
BLOCKS
  0
ENDSEC
  0
SECTION
  2
ENTITIES
  0
TEXT
  8
0
  6
CONTINUOUS
 40
0.100000
 10
286.935000
 20
41.326000
  1
2
  7
ROMANC
  0
TEXT
  8
0
  6
CONTINUOUS
 40
0.300000
 10
283.926000
 20
41.768000
  1
ESCALA  1:50
  7
ROMANC
  0
POLYLINE
  8
0
  6
CONTINUOUS
 66
     1
 70
     1
  0
VERTEX
  8
0
  6
CONTINUOUS
 10
281.396000
 20
44.747000
  0
VERTEX
  8
0
  6
CONTINUOUS
 10
291.896000
 20
44.747000
  0
VERTEX
  8
0
  6
CONTINUOUS
 10
291.896000
 20
29.897000
  0
VERTEX
  8
0
  6
CONTINUOUS
 10
281.396000
 20
29.897000
  0
SEQEND
  8
0
  0
TEXT
  8
0
  6
CONTINUOUS
 40
0.300000
 10
283.945000
 20
41.099000
  1
S = 279 dm
  7
ROMANC
  0
TEXT
  8
0
  6
CONTINUOUS
 40
0.300000
 10
283.922000
 20
40.529000
  1
P = 67 dm
  7
ROMANC
  0
LINE
  8
1
  6
CONTINUOUS
 10
287.305000
 20
37.392000
 11
287.305000
 21
35.792000
  0
TEXT
  8
0
  6
CONTINUOUS
 40
0.300000
 10
283.926000
 20
42.381000
  1
TIPUS   NT279B
  7
ROMANC
  0
LINE
  8
1
  6
CONTINUOUS
 10
287.315000
 20
35.782000
 11
285.995000
 21
35.782000
  0
LINE
  8
1
  6
CONTINUOUS
 10
287.325000
 20
35.772000
 11
285.985000
 21
35.772000
  0
LINE
  8
1
  6
CONTINUOUS
 10
285.995000
 20
35.782000
 11
285.995000
 21
37.392000
  0
LINE
  8
1
  6
CONTINUOUS
 10
285.985000
 20
35.772000
 11
285.985000
 21
37.392000
  0
LINE
  8
1
  6
CONTINUOUS
 10
287.315000
 20
37.392000
 11
287.315000
 21
35.782000
  0
LINE
  8
1
  6
CONTINUOUS
 10
287.325000
 20
37.392000
 11
287.325000
 21
35.772000
  0
POLYLINE
  8
1
  6
CONTINUOUS
 66
     1
 70
     0
  0
VERTEX
  8
1
  6
CONTINUOUS
 10
287.314513
 20
37.392315
 42
0.030390
  0
VERTEX
  8
1
  6
CONTINUOUS
 10
287.308861
 20
37.484882
 42
0.030600
  0
VERTEX
  8
1
  6
CONTINUOUS
 10
287.292024
 20
37.576077
 42
0.030740
  0
VERTEX
  8
1
  6
CONTINUOUS
 10
287.264359
 20
37.663743
 42
0.031334
  0
VERTEX
  8
1
  6
CONTINUOUS
 10
287.226089
 20
37.747315
 42
0.031590
  0
VERTEX
  8
1
  6
CONTINUOUS
 10
287.178341
 20
37.824195
 42
0.032454
  0
VERTEX
  8
1
  6
CONTINUOUS
 10
287.121203
 20
37.894361
 42
0.032772
  0
VERTEX
  8
1
  6
CONTINUOUS
 10
287.056594
 20
37.955315
 42
0.033703
  0
VERTEX
  8
1
  6
CONTINUOUS
 10
286.984513
 20
38.007193
 42
0.034002
  0
VERTEX
  8
1
  6
CONTINUOUS
 10
286.907349
 20
38.048118
 42
0.034730
  0
VERTEX
  8
1
  6
CONTINUOUS
 10
286.825333
 20
38.078123
 42
0.034913
  0
VERTEX
  8
1
  6
CONTINUOUS
 10
286.740767
 20
38.096192
 42
0.035190
  0
VERTEX
  8
1
  6
CONTINUOUS
 10
286.654513
 20
38.102315
 42
0.035190
  0
VERTEX
  8
1
  6
CONTINUOUS
 10
286.568259
 20
38.096192
 42
0.034913
  0
VERTEX
  8
1
  6
CONTINUOUS
 10
286.483692
 20
38.078123
 42
0.034730
  0
VERTEX
  8
1
  6
CONTINUOUS
 10
286.401676
 20
38.048118
 42
0.034002
  0
VERTEX
  8
1
  6
CONTINUOUS
 10
286.324513
 20
38.007193
 42
0.033703
  0
VERTEX
  8
1
  6
CONTINUOUS
 10
286.252431
 20
37.955315
 42
0.032772
  0
VERTEX
  8
1
  6
CONTINUOUS
 10
286.187822
 20
37.894361
 42
0.032454
  0
VERTEX
  8
1
  6
CONTINUOUS
 10
286.130684
 20
37.824195
 42
0.031590
  0
VERTEX
  8
1
  6
CONTINUOUS
 10
286.082936
 20
37.747315
 42
0.031334
  0
VERTEX
  8
1
  6
CONTINUOUS
 10
286.044666
 20
37.663743
 42
0.030740
  0
VERTEX
  8
1
  6
CONTINUOUS
 10
286.017002
 20
37.576077
 42
0.030600
  0
VERTEX
  8
1
  6
CONTINUOUS
 10
286.000164
 20
37.484882
 42
0.030390
  0
VERTEX
  8
1
  6
CONTINUOUS
 10
285.994513
 20
37.392315
  0
SEQEND
  8
0
  0
POLYLINE
  8
1
  6
CONTINUOUS
 66
     1
 70
     0
  0
VERTEX
  8
1
  6
CONTINUOUS
 10
287.324513
 20
37.392315
 42
0.030422
  0
VERTEX
  8
1
  6
CONTINUOUS
 10
287.318775
 20
37.486187
 42
0.030630
  0
VERTEX
  8
1
  6
CONTINUOUS
 10
287.301683
 20
37.578665
 42
0.030768
  0
VERTEX
  8
1
  6
CONTINUOUS
 10
287.273598
 20
37.667569
 42
0.031354
  0
VERTEX
  8
1
  6
CONTINUOUS
 10
287.234750
 20
37.752315
 42
0.031607
  0
VERTEX
  8
1
  6
CONTINUOUS
 10
287.186275
 20
37.830283
 42
0.032459
  0
VERTEX
  8
1
  6
CONTINUOUS
 10
287.128274
 20
37.901432
 42
0.032773
  0
VERTEX
  8
1
  6
CONTINUOUS
 10
287.062682
 20
37.963248
 42
0.033689
  0
VERTEX
  8
1
  6
CONTINUOUS
 10
286.989513
 20
38.015854
 42
0.033984
  0
VERTEX
  8
1
  6
CONTINUOUS
 10
286.911176
 20
38.057356
 42
0.034700
  0
VERTEX
  8
1
  6
CONTINUOUS
 10
286.827921
 20
38.087782
 42
0.034880
  0
VERTEX
  8
1
  6
CONTINUOUS
 10
286.742072
 20
38.106106
 42
0.035153
  0
VERTEX
  8
1
  6
CONTINUOUS
 10
286.654513
 20
38.112315
 42
0.035153
  0
VERTEX
  8
1
  6
CONTINUOUS
 10
286.566953
 20
38.106106
 42
0.034880
  0
VERTEX
  8
1
  6
CONTINUOUS
 10
286.481104
 20
38.087782
 42
0.034700
  0
VERTEX
  8
1
  6
CONTINUOUS
 10
286.397849
 20
38.057356
 42
0.033984
  0
VERTEX
  8
1
  6
CONTINUOUS
 10
286.319513
 20
38.015854
 42
0.033689
  0
VERTEX
  8
1
  6
CONTINUOUS
 10
286.246344
 20
37.963248
 42
0.032773
  0
VERTEX
  8
1
  6
CONTINUOUS
 10
286.180751
 20
37.901432
 42
0.032459
  0
VERTEX
  8
1
  6
CONTINUOUS
 10
286.122750
 20
37.830283
 42
0.031607
  0
VERTEX
  8
1
  6
CONTINUOUS
 10
286.074276
 20
37.752315
 42
0.031354
  0
VERTEX
  8
1
  6
CONTINUOUS
 10
286.035427
 20
37.667569
 42
0.030768
  0
VERTEX
  8
1
  6
CONTINUOUS
 10
286.007342
 20
37.578665
 42
0.030630
  0
VERTEX
  8
1
  6
CONTINUOUS
 10
285.990250
 20
37.486187
 42
0.030422
  0
VERTEX
  8
1
  6
CONTINUOUS
 10
285.984513
 20
37.392315
  0
SEQEND
  8
0
  0
LINE
  8
1
  6
CONTINUOUS
 10
287.305000
 20
35.792000
 11
286.005000
 21
35.792000
  0
TEXT
  8
1
  6
CONTINUOUS
 40
0.075000
 10
286.518000
 20
35.108000
  1
1.30
  7
ROMANC
  0
LINE
  8
1
  6
CONTINUOUS
 10
286.480000
 20
35.145000
 11
286.005000
 21
35.145000
  0
LINE
  8
1
  6
CONTINUOUS
 10
286.829000
 20
35.145000
 11
287.305000
 21
35.145000
  0
LINE
  8
1
  6
CONTINUOUS
 10
285.968000
 20
35.126000
 11
286.042000
 21
35.164000
  0
LINE
  8
1
  6
CONTINUOUS
 10
287.342000
 20
35.164000
 11
287.268000
 21
35.126000
  0
LINE
  8
1
  6
CONTINUOUS
 10
286.005000
 20
35.754000
 11
286.005000
 21
35.107000
  0
LINE
  8
1
  6
CONTINUOUS
 10
287.305000
 20
35.754000
 11
287.305000
 21
35.107000
  0
LINE
  8
1
  6
CONTINUOUS
 10
286.005000
 20
35.792000
 11
286.005000
 21
37.392000
  0
TEXT
  8
1
  6
CONTINUOUS
 40
0.075000
 10
285.358000
 20
36.455000
  1
1.60
 50
90.000000
  7
ROMANC
  0
LINE
  8
1
  6
CONTINUOUS
 10
285.321000
 20
36.417000
 11
285.321000
 21
35.792000
  0
LINE
  8
1
  6
CONTINUOUS
 10
285.321000
 20
36.766000
 11
285.321000
 21
37.392000
  0
LINE
  8
1
  6
CONTINUOUS
 10
285.340000
 20
35.754000
 11
285.302000
 21
35.830000
  0
LINE
  8
1
  6
CONTINUOUS
 10
285.302000
 20
37.430000
 11
285.340000
 21
37.354000
  0
LINE
  8
1
  6
CONTINUOUS
 10
285.967000
 20
35.792000
 11
285.283000
 21
35.792000
  0
LINE
  8
1
  6
CONTINUOUS
 10
285.967000
 20
37.392000
 11
285.283000
 21
37.392000
  0
POLYLINE
  8
1
  6
CONTINUOUS
 66
     1
 70
     0
  0
VERTEX
  8
1
  6
CONTINUOUS
 10
287.304513
 20
37.392315
 42
0.030357
  0
VERTEX
  8
1
  6
CONTINUOUS
 10
287.298947
 20
37.483577
 42
0.030570
  0
VERTEX
  8
1
  6
CONTINUOUS
 10
287.282364
 20
37.573489
 42
0.030711
  0
VERTEX
  8
1
  6
CONTINUOUS
 10
287.255121
 20
37.659916
 42
0.031314
  0
VERTEX
  8
1
  6
CONTINUOUS
 10
287.217429
 20
37.742315
 42
0.031573
  0
VERTEX
  8
1
  6
CONTINUOUS
 10
287.170408
 20
37.818108
 42
0.032449
  0
VERTEX
  8
1
  6
CONTINUOUS
 10
287.114132
 20
37.887290
 42
0.032772
  0
VERTEX
  8
1
  6
CONTINUOUS
 10
287.050507
 20
37.947382
 42
0.033717
  0
VERTEX
  8
1
  6
CONTINUOUS
 10
286.979513
 20
37.998533
 42
0.034020
  0
VERTEX
  8
1
  6
CONTINUOUS
 10
286.903523
 20
38.038879
 42
0.034760
  0
VERTEX
  8
1
  6
CONTINUOUS
 10
286.822745
 20
38.068463
 42
0.034947
  0
VERTEX
  8
1
  6
CONTINUOUS
 10
286.739461
 20
38.086278
 42
0.035228
  0
VERTEX
  8
1
  6
CONTINUOUS
 10
286.654513
 20
38.092315
 42
0.035228
  0
VERTEX
  8
1
  6
CONTINUOUS
 10
286.569564
 20
38.086278
 42
0.034947
  0
VERTEX
  8
1
  6
CONTINUOUS
 10
286.486280
 20
38.068463
 42
0.034760
  0
VERTEX
  8
1
  6
CONTINUOUS
 10
286.405503
 20
38.038879
 42
0.034020
  0
VERTEX
  8
1
  6
CONTINUOUS
 10
286.329513
 20
37.998533
 42
0.033717
  0
VERTEX
  8
1
  6
CONTINUOUS
 10
286.258519
 20
37.947382
 42
0.032772
  0
VERTEX
  8
1
  6
CONTINUOUS
 10
286.194893
 20
37.887290
 42
0.032449
  0
VERTEX
  8
1
  6
CONTINUOUS
 10
286.138617
 20
37.818108
 42
0.031573
  0
VERTEX
  8
1
  6
CONTINUOUS
 10
286.091596
 20
37.742315
 42
0.031314
  0
VERTEX
  8
1
  6
CONTINUOUS
 10
286.053904
 20
37.659916
 42
0.030711
  0
VERTEX
  8
1
  6
CONTINUOUS
 10
286.026661
 20
37.573489
 42
0.030570
  0
VERTEX
  8
1
  6
CONTINUOUS
 10
286.010078
 20
37.483577
 42
0.030357
  0
VERTEX
  8
1
  6
CONTINUOUS
 10
286.004513
 20
37.392315
  0
SEQEND
  8
0
  0
TEXT
  8
1
  6
CONTINUOUS
 40
0.075000
 10
288.116000
 20
36.805000
  1
2.30
 50
90.000000
  7
ROMANC
  0
LINE
  8
1
  6
CONTINUOUS
 10
288.079000
 20
36.767000
 11
288.079000
 21
35.792000
  0
LINE
  8
1
  6
CONTINUOUS
 10
288.079000
 20
37.116000
 11
288.079000
 21
38.092000
  0
LINE
  8
1
  6
CONTINUOUS
 10
288.098000
 20
35.754000
 11
288.060000
 21
35.830000
  0
LINE
  8
1
  6
CONTINUOUS
 10
288.060000
 20
38.130000
 11
288.098000
 21
38.054000
  0
LINE
  8
1
  6
CONTINUOUS
 10
287.343000
 20
35.792000
 11
288.117000
 21
35.792000
  0
LINE
  8
1
  6
CONTINUOUS
 10
286.693000
 20
38.092000
 11
288.117000
 21
38.092000
  0
ENDSEC
  0
EOF
