  0
SECTION
  2
HEADER
  9
$ACADVER
  1
AC1009
  9
$INSBASE
 10
105.464027
 20
-4.528761
 30
0.0
  9
$EXTMIN
 10
281.395795
 20
29.897444
 30
0.0
  9
$EXTMAX
 10
291.895795
 20
44.747444
 30
0.0
  9
$LIMMIN
 10
0.0
 20
0.0
  9
$LIMMAX
 10
410.0
 20
287.0
  9
$ORTHOMODE
 70
     1
  9
$REGENMODE
 70
     1
  9
$FILLMODE
 70
     1
  9
$QTEXTMODE
 70
     0
  9
$MIRRTEXT
 70
     1
  9
$DRAGMODE
 70
     2
  9
$LTSCALE
 40
25.0
  9
$OSMODE
 70
     0
  9
$ATTMODE
 70
     1
  9
$TEXTSIZE
 40
0.1
  9
$TRACEWID
 40
1.0
  9
$TEXTSTYLE
  7
ROMANC
  9
$CLAYER
  8
0
  9
$CELTYPE
  6
BYLAYER
  9
$CECOLOR
 62
   256
  9
$DIMSCALE
 40
1.5
  9
$DIMASZ
 40
0.1
  9
$DIMEXO
 40
0.01
  9
$DIMDLI
 40
7.0
  9
$DIMRND
 40
0.0
  9
$DIMDLE
 40
0.0
  9
$DIMEXE
 40
0.01
  9
$DIMTP
 40
0.0
  9
$DIMTM
 40
0.0
  9
$DIMTXT
 40
0.05
  9
$DIMCEN
 40
0.1
  9
$DIMTSZ
 40
0.0
  9
$DIMTOL
 70
     0
  9
$DIMLIM
 70
     0
  9
$DIMTIH
 70
     0
  9
$DIMTOH
 70
     0
  9
$DIMSE1
 70
     0
  9
$DIMSE2
 70
     0
  9
$DIMTAD
 70
     1
  9
$DIMZIN
 70
     0
  9
$DIMBLK
  1

  9
$DIMASO
 70
     1
  9
$DIMSHO
 70
     0
  9
$DIMPOST
  1

  9
$DIMAPOST
  1

  9
$DIMALT
 70
     0
  9
$DIMALTD
 70
     2
  9
$DIMALTF
 40
25.4
  9
$DIMLFAC
 40
1.0
  9
$DIMTOFL
 70
     1
  9
$DIMTVP
 40
0.0
  9
$DIMTIX
 70
     1
  9
$DIMSOXD
 70
     0
  9
$DIMSAH
 70
     0
  9
$DIMBLK1
  1

  9
$DIMBLK2
  1

  9
$DIMSTYLE
  2
*UNNAMED
  9
$DIMCLRD
 70
     0
  9
$DIMCLRE
 70
     0
  9
$DIMCLRT
 70
     0
  9
$DIMTFAC
 40
70.0
  9
$DIMGAP
 40
0.09
  9
$LUNITS
 70
     2
  9
$LUPREC
 70
     2
  9
$SKETCHINC
 40
1.0
  9
$FILLETRAD
 40
0.0
  9
$AUNITS
 70
     0
  9
$AUPREC
 70
     0
  9
$MENU
  1
acad
  9
$ELEVATION
 40
0.0
  9
$PELEVATION
 40
0.0
  9
$THICKNESS
 40
0.0
  9
$LIMCHECK
 70
     0
  9
$BLIPMODE
 70
     0
  9
$CHAMFERA
 40
0.0
  9
$CHAMFERB
 40
0.0
  9
$SKPOLY
 70
     0
  9
$TDCREATE
 40
2450305.554557986
  9
$TDUPDATE
 40
2450871.573571527
  9
$TDINDWG
 40
0.2105986111
  9
$TDUSRTIMER
 40
0.2105986111
  9
$USRTIMER
 70
     1
  9
$ANGBASE
 50
0.0
  9
$ANGDIR
 70
     0
  9
$PDMODE
 70
     0
  9
$PDSIZE
 40
0.0
  9
$PLINEWID
 40
0.0
  9
$COORDS
 70
     2
  9
$SPLFRAME
 70
     0
  9
$SPLINETYPE
 70
     6
  9
$SPLINESEGS
 70
     8
  9
$ATTDIA
 70
     0
  9
$ATTREQ
 70
     1
  9
$HANDLING
 70
     0
  9
$HANDSEED
  5
0
  9
$SURFTAB1
 70
     6
  9
$SURFTAB2
 70
     6
  9
$SURFTYPE
 70
     6
  9
$SURFU
 70
     6
  9
$SURFV
 70
     6
  9
$UCSNAME
  2

  9
$UCSORG
 10
0.0
 20
0.0
 30
0.0
  9
$UCSXDIR
 10
1.0
 20
0.0
 30
0.0
  9
$UCSYDIR
 10
0.0
 20
1.0
 30
0.0
  9
$PUCSNAME
  2

  9
$PUCSORG
 10
0.0
 20
0.0
 30
0.0
  9
$PUCSXDIR
 10
1.0
 20
0.0
 30
0.0
  9
$PUCSYDIR
 10
0.0
 20
1.0
 30
0.0
  9
$USERI1
 70
     0
  9
$USERI2
 70
     0
  9
$USERI3
 70
     0
  9
$USERI4
 70
     0
  9
$USERI5
 70
     0
  9
$USERR1
 40
0.0
  9
$USERR2
 40
0.0
  9
$USERR3
 40
0.0
  9
$USERR4
 40
0.0
  9
$USERR5
 40
0.0
  9
$WORLDVIEW
 70
     1
  9
$SHADEDGE
 70
     3
  9
$SHADEDIF
 70
    70
  9
$TILEMODE
 70
     1
  9
$MAXACTVP
 70
    16
  9
$PINSBASE
 10
0.0
 20
0.0
 30
0.0
  9
$PLIMCHECK
 70
     0
  9
$PEXTMIN
 10
1.000000E+20
 20
1.000000E+20
 30
1.000000E+20
  9
$PEXTMAX
 10
-1.000000E+20
 20
-1.000000E+20
 30
-1.000000E+20
  9
$PLIMMIN
 10
0.0
 20
0.0
  9
$PLIMMAX
 10
12.0
 20
9.0
  9
$UNITMODE
 70
     0
  9
$VISRETAIN
 70
     0
  9
$PLINEGEN
 70
     0
  9
$PSLTSCALE
 70
     0
  9
$TREEDEPTH
 70
  3020
  9
$DWGCODEPAGE
  3
iso8859-1
  0
ENDSEC
  0
SECTION
  2
TABLES
  0
TABLE
  2
VPORT
 70
     2
  0
VPORT
  2
*ACTIVE
 70
     0
 10
0.0
 20
0.0
 11
1.0
 21
1.0
 12
292.922009
 22
37.322444
 13
0.0
 23
0.0
 14
1.0
 24
1.0
 15
10.0
 25
10.0
 16
0.0
 26
0.0
 36
1.0
 17
0.0
 27
0.0
 37
0.0
 40
14.85
 41
1.552352
 42
50.0
 43
0.0
 44
0.0
 50
0.0
 51
0.0
 71
     0
 72
   100
 73
     1
 74
     0
 75
     0
 76
     0
 77
     0
 78
     1
  0
ENDTAB
  0
TABLE
  2
LTYPE
 70
     1
  0
LTYPE
  2
CONTINUOUS
 70
    64
  3
Solid line
 72
    65
 73
     0
 40
0.0
  0
ENDTAB
  0
TABLE
  2
LAYER
 70
     2
  0
LAYER
  2
0
 70
    64
 62
     7
  6
CONTINUOUS
  0
LAYER
  2
DEFPOINTS
 70
    64
 62
     7
  6
CONTINUOUS
  0
ENDTAB
  0
TABLE
  2
STYLE
 70
     2
  0
STYLE
  2
STANDARD
 70
     0
 40
0.0
 41
1.0
 50
0.0
 71
     0
 42
0.1
  3
txt
  4

  0
STYLE
  2
ROMANC
 70
    64
 40
0.0
 41
1.0
 50
0.0
 71
     0
 42
0.1
  3
romanc
  4

  0
ENDTAB
  0
TABLE
  2
VIEW
 70
     0
  0
ENDTAB
  0
TABLE
  2
UCS
 70
     0
  0
ENDTAB
  0
TABLE
  2
APPID
 70
     1
  0
APPID
  2
ACAD
 70
    64
  0
ENDTAB
  0
TABLE
  2
DIMSTYLE
 70
     0
  0
ENDTAB
  0
ENDSEC
  0
SECTION
  2
BLOCKS
  0
BLOCK
  8
0
  2
*D7
 70
    65
 10
0.0
 20
0.0
 30
0.0
  3
*D
  0
LINE
  8
0
  6
BYBLOCK
 62
     0
 10
286.292058
 20
36.178097
 30
0.0
 11
286.572601
 21
36.178097
 31
0.0
  0
LINE
  8
0
  6
BYBLOCK
 62
     0
 10
286.226431
 20
35.028097
 30
0.0
 11
286.572601
 21
35.028097
 31
0.0
  0
LINE
  8
0
  6
BYBLOCK
 62
     0
 10
286.557601
 20
36.028097
 30
0.0
 11
286.557601
 21
35.178097
 31
0.0
  0
SOLID
  8
0
  6
BYBLOCK
 62
     0
 10
286.532601
 20
36.028097
 30
0.0
 11
286.582601
 21
36.028097
 31
0.0
 12
286.557601
 22
36.178097
 32
0.0
 13
286.557601
 23
36.178097
 33
0.0
  0
SOLID
  8
0
  6
BYBLOCK
 62
     0
 10
286.532601
 20
35.178097
 30
0.0
 11
286.582601
 21
35.178097
 31
0.0
 12
286.557601
 22
35.028097
 32
0.0
 13
286.557601
 23
35.028097
 33
0.0
  0
TEXT
  8
0
  6
BYBLOCK
 62
     0
 10
286.520101
 20
35.47274
 30
0.0
 40
0.075
  1
1.15
 50
90.0
  7
ROMANC
 72
     1
 11
286.482601
 21
35.603097
 31
0.0
 73
     2
  0
POINT
  8
DEFPOINTS
  6
BYBLOCK
 62
     0
 10
286.277058
 20
36.178097
 30
0.0
  0
POINT
  8
DEFPOINTS
  6
BYBLOCK
 62
     0
 10
286.211431
 20
35.028097
 30
0.0
  0
POINT
  8
DEFPOINTS
  6
BYBLOCK
 62
     0
 10
286.557601
 20
35.028097
 30
0.0
  0
ENDBLK
  8
0
  0
BLOCK
  8
0
  2
*D8
 70
    65
 10
0.0
 20
0.0
 30
0.0
  3
*D
  0
LINE
  8
0
  6
BYBLOCK
 62
     0
 10
284.874048
 20
35.013097
 30
0.0
 11
284.874048
 21
34.385324
 31
0.0
  0
LINE
  8
0
  6
BYBLOCK
 62
     0
 10
285.574048
 20
35.013097
 30
0.0
 11
285.574048
 21
34.385324
 31
0.0
  0
LINE
  8
0
  6
BYBLOCK
 62
     0
 10
284.724048
 20
34.400324
 30
0.0
 11
284.574048
 21
34.400324
 31
0.0
  0
LINE
  8
0
  6
BYBLOCK
 62
     0
 10
285.724048
 20
34.400324
 30
0.0
 11
285.874048
 21
34.400324
 31
0.0
  0
SOLID
  8
0
  6
BYBLOCK
 62
     0
 10
284.724048
 20
34.425324
 30
0.0
 11
284.724048
 21
34.375324
 31
0.0
 12
284.874048
 22
34.400324
 32
0.0
 13
284.874048
 23
34.400324
 33
0.0
  0
SOLID
  8
0
  6
BYBLOCK
 62
     0
 10
285.724048
 20
34.425324
 30
0.0
 11
285.724048
 21
34.375324
 31
0.0
 12
285.574048
 22
34.400324
 32
0.0
 13
285.574048
 23
34.400324
 33
0.0
  0
LINE
  8
0
  6
BYBLOCK
 62
     0
 10
284.874048
 20
34.400324
 30
0.0
 11
285.574048
 21
34.400324
 31
0.0
  0
TEXT
  8
0
  6
BYBLOCK
 62
     0
 10
285.099048
 20
34.437824
 30
0.0
 40
0.075
  1
0.70
  7
ROMANC
 72
     1
 11
285.224048
 21
34.475324
 31
0.0
 73
     2
  0
POINT
  8
DEFPOINTS
  6
BYBLOCK
 62
     0
 10
284.874048
 20
35.028097
 30
0.0
  0
POINT
  8
DEFPOINTS
  6
BYBLOCK
 62
     0
 10
285.574048
 20
35.028097
 30
0.0
  0
POINT
  8
DEFPOINTS
  6
BYBLOCK
 62
     0
 10
285.574048
 20
34.400324
 30
0.0
  0
ENDBLK
  8
0
  0
BLOCK
  8
0
  2
*D9
 70
    65
 10
0.0
 20
0.0
 30
0.0
  3
*D
  0
LINE
  8
0
  6
BYBLOCK
 62
     0
 10
284.274048
 20
35.013097
 30
0.0
 11
284.274048
 21
34.086756
 31
0.0
  0
LINE
  8
0
  6
BYBLOCK
 62
     0
 10
286.174048
 20
35.013097
 30
0.0
 11
286.174048
 21
34.086756
 31
0.0
  0
LINE
  8
0
  6
BYBLOCK
 62
     0
 10
284.424048
 20
34.101756
 30
0.0
 11
286.024048
 21
34.101756
 31
0.0
  0
SOLID
  8
0
  6
BYBLOCK
 62
     0
 10
284.424048
 20
34.126756
 30
0.0
 11
284.424048
 21
34.076756
 31
0.0
 12
284.274048
 22
34.101756
 32
0.0
 13
284.274048
 23
34.101756
 33
0.0
  0
SOLID
  8
0
  6
BYBLOCK
 62
     0
 10
286.024048
 20
34.126756
 30
0.0
 11
286.024048
 21
34.076756
 31
0.0
 12
286.174048
 22
34.101756
 32
0.0
 13
286.174048
 23
34.101756
 33
0.0
  0
TEXT
  8
0
  6
BYBLOCK
 62
     0
 10
285.093691
 20
34.139256
 30
0.0
 40
0.075
  1
1.90
  7
ROMANC
 72
     1
 11
285.224048
 21
34.176756
 31
0.0
 73
     2
  0
POINT
  8
DEFPOINTS
  6
BYBLOCK
 62
     0
 10
284.274048
 20
35.028097
 30
0.0
  0
POINT
  8
DEFPOINTS
  6
BYBLOCK
 62
     0
 10
286.174048
 20
35.028097
 30
0.0
  0
POINT
  8
DEFPOINTS
  6
BYBLOCK
 62
     0
 10
286.174048
 20
34.101756
 30
0.0
  0
ENDBLK
  8
0
  0
BLOCK
  8
0
  2
*D10
 70
    65
 10
0.0
 20
0.0
 30
0.0
  3
*D
  0
LINE
  8
0
  6
BYBLOCK
 62
     0
 10
285.239048
 20
34.628097
 30
0.0
 11
286.551999
 21
34.628097
 31
0.0
  0
LINE
  8
0
  6
BYBLOCK
 62
     0
 10
285.589048
 20
35.028097
 30
0.0
 11
286.551999
 21
35.028097
 31
0.0
  0
LINE
  8
0
  6
BYBLOCK
 62
     0
 10
286.536999
 20
34.478097
 30
0.0
 11
286.536999
 21
34.328097
 31
0.0
  0
LINE
  8
0
  6
BYBLOCK
 62
     0
 10
286.536999
 20
35.178097
 30
0.0
 11
286.536999
 21
35.328097
 31
0.0
  0
SOLID
  8
0
  6
BYBLOCK
 62
     0
 10
286.511999
 20
34.478097
 30
0.0
 11
286.561999
 21
34.478097
 31
0.0
 12
286.536999
 22
34.628097
 32
0.0
 13
286.536999
 23
34.628097
 33
0.0
  0
SOLID
  8
0
  6
BYBLOCK
 62
     0
 10
286.511999
 20
35.178097
 30
0.0
 11
286.561999
 21
35.178097
 31
0.0
 12
286.536999
 22
35.028097
 32
0.0
 13
286.536999
 23
35.028097
 33
0.0
  0
LINE
  8
0
  6
BYBLOCK
 62
     0
 10
286.536999
 20
34.628097
 30
0.0
 11
286.536999
 21
35.028097
 31
0.0
  0
TEXT
  8
0
  6
BYBLOCK
 62
     0
 10
286.499499
 20
34.703097
 30
0.0
 40
0.075
  1
0.40
 50
90.0
  7
ROMANC
 72
     1
 11
286.461999
 21
34.828097
 31
0.0
 73
     2
  0
POINT
  8
DEFPOINTS
  6
BYBLOCK
 62
     0
 10
285.224048
 20
34.628097
 30
0.0
  0
POINT
  8
DEFPOINTS
  6
BYBLOCK
 62
     0
 10
285.574048
 20
35.028097
 30
0.0
  0
POINT
  8
DEFPOINTS
  6
BYBLOCK
 62
     0
 10
286.536999
 20
35.028097
 30
0.0
  0
ENDBLK
  8
0
  0
BLOCK
  8
0
  2
*D11
 70
    65
 10
0.0
 20
0.0
 30
0.0
  3
*D
  0
LINE
  8
0
  6
BYBLOCK
 62
     0
 10
284.224048
 20
36.193097
 30
0.0
 11
284.224048
 21
36.193097
 31
0.0
  0
LINE
  8
0
  6
BYBLOCK
 62
     0
 10
286.224048
 20
36.193097
 30
0.0
 11
286.224048
 21
36.193097
 31
0.0
  0
LINE
  8
0
  6
BYBLOCK
 62
     0
 10
284.374048
 20
36.178097
 30
0.0
 11
286.074048
 21
36.178097
 31
0.0
  0
SOLID
  8
0
  6
BYBLOCK
 62
     0
 10
284.374048
 20
36.203097
 30
0.0
 11
284.374048
 21
36.153097
 31
0.0
 12
284.224048
 22
36.178097
 32
0.0
 13
284.224048
 23
36.178097
 33
0.0
  0
SOLID
  8
0
  6
BYBLOCK
 62
     0
 10
286.074048
 20
36.203097
 30
0.0
 11
286.074048
 21
36.153097
 31
0.0
 12
286.224048
 22
36.178097
 32
0.0
 13
286.224048
 23
36.178097
 33
0.0
  0
TEXT
  8
0
  6
BYBLOCK
 62
     0
 10
285.099048
 20
36.215597
 30
0.0
 40
0.075
  1
2.00
  7
ROMANC
 72
     1
 11
285.224048
 21
36.253097
 31
0.0
 73
     2
  0
POINT
  8
DEFPOINTS
  6
BYBLOCK
 62
     0
 10
284.224048
 20
36.178097
 30
0.0
  0
POINT
  8
DEFPOINTS
  6
BYBLOCK
 62
     0
 10
286.224048
 20
36.178097
 30
0.0
  0
POINT
  8
DEFPOINTS
  6
BYBLOCK
 62
     0
 10
286.224048
 20
36.178097
 30
0.0
  0
ENDBLK
  8
0
  0
BLOCK
  8
0
  2
*D12
 70
    65
 10
0.0
 20
0.0
 30
0.0
  3
*D
  0
LINE
  8
0
  6
BYBLOCK
 62
     0
 10
285.239048
 20
34.628097
 30
0.0
 11
286.916599
 21
34.628097
 31
0.0
  0
LINE
  8
0
  6
BYBLOCK
 62
     0
 10
285.239048
 20
36.628097
 30
0.0
 11
286.916599
 21
36.628097
 31
0.0
  0
LINE
  8
0
  6
BYBLOCK
 62
     0
 10
286.901599
 20
34.778097
 30
0.0
 11
286.901599
 21
36.478097
 31
0.0
  0
SOLID
  8
0
  6
BYBLOCK
 62
     0
 10
286.876599
 20
34.778097
 30
0.0
 11
286.926599
 21
34.778097
 31
0.0
 12
286.901599
 22
34.628097
 32
0.0
 13
286.901599
 23
34.628097
 33
0.0
  0
SOLID
  8
0
  6
BYBLOCK
 62
     0
 10
286.876599
 20
36.478097
 30
0.0
 11
286.926599
 21
36.478097
 31
0.0
 12
286.901599
 22
36.628097
 32
0.0
 13
286.901599
 23
36.628097
 33
0.0
  0
TEXT
  8
0
  6
BYBLOCK
 62
     0
 10
286.864099
 20
35.503097
 30
0.0
 40
0.075
  1
2.00
 50
90.0
  7
ROMANC
 72
     1
 11
286.826599
 21
35.628097
 31
0.0
 73
     2
  0
POINT
  8
DEFPOINTS
  6
BYBLOCK
 62
     0
 10
285.224048
 20
34.628097
 30
0.0
  0
POINT
  8
DEFPOINTS
  6
BYBLOCK
 62
     0
 10
285.224048
 20
36.628097
 30
0.0
  0
POINT
  8
DEFPOINTS
  6
BYBLOCK
 62
     0
 10
286.901599
 20
36.628097
 30
0.0
  0
ENDBLK
  8
0
  0
BLOCK
  8
0
  2
*D13
 70
    65
 10
0.0
 20
0.0
 30
0.0
  3
*D
  0
LINE
  8
0
  6
BYBLOCK
 62
     0
 10
286.24972
 20
34.99429
 30
0.0
 11
286.24972
 21
34.685938
 31
0.0
  0
LINE
  8
0
  6
BYBLOCK
 62
     0
 10
284.24972
 20
34.99429
 30
0.0
 11
284.24972
 21
34.685938
 31
0.0
  0
LINE
  8
0
  6
BYBLOCK
 62
     0
 10
286.09972
 20
34.700938
 30
0.0
 11
284.39972
 21
34.700938
 31
0.0
  0
SOLID
  8
0
  6
BYBLOCK
 62
     0
 10
286.09972
 20
34.725938
 30
0.0
 11
286.09972
 21
34.675938
 31
0.0
 12
286.24972
 22
34.700938
 32
0.0
 13
286.24972
 23
34.700938
 33
0.0
  0
SOLID
  8
0
  6
BYBLOCK
 62
     0
 10
284.39972
 20
34.725938
 30
0.0
 11
284.39972
 21
34.675938
 31
0.0
 12
284.24972
 22
34.700938
 32
0.0
 13
284.24972
 23
34.700938
 33
0.0
  0
TEXT
  8
0
  6
BYBLOCK
 62
     0
 10
285.12472
 20
34.738438
 30
0.0
 40
0.075
  1
2.00
  7
ROMANC
 72
     1
 11
285.24972
 21
34.775938
 31
0.0
 73
     2
  0
POINT
  8
DEFPOINTS
  6
BYBLOCK
 62
     0
 10
286.24972
 20
35.00929
 30
0.0
  0
POINT
  8
DEFPOINTS
  6
BYBLOCK
 62
     0
 10
284.24972
 20
35.00929
 30
0.0
  0
POINT
  8
DEFPOINTS
  6
BYBLOCK
 62
     0
 10
284.24972
 20
34.700938
 30
0.0
  0
ENDBLK
  8
0
  0
BLOCK
  8
0
  2
*D14
 70
    65
 10
0.0
 20
0.0
 30
0.0
  3
*D
  0
LINE
  8
0
  6
BYBLOCK
 62
     0
 10
284.24972
 20
36.02429
 30
0.0
 11
284.24972
 21
36.02429
 31
0.0
  0
LINE
  8
0
  6
BYBLOCK
 62
     0
 10
286.24972
 20
36.02429
 30
0.0
 11
286.24972
 21
36.02429
 31
0.0
  0
LINE
  8
0
  6
BYBLOCK
 62
     0
 10
284.39972
 20
36.00929
 30
0.0
 11
286.09972
 21
36.00929
 31
0.0
  0
SOLID
  8
0
  6
BYBLOCK
 62
     0
 10
284.39972
 20
36.03429
 30
0.0
 11
284.39972
 21
35.98429
 31
0.0
 12
284.24972
 22
36.00929
 32
0.0
 13
284.24972
 23
36.00929
 33
0.0
  0
SOLID
  8
0
  6
BYBLOCK
 62
     0
 10
286.09972
 20
36.03429
 30
0.0
 11
286.09972
 21
35.98429
 31
0.0
 12
286.24972
 22
36.00929
 32
0.0
 13
286.24972
 23
36.00929
 33
0.0
  0
TEXT
  8
0
  6
BYBLOCK
 62
     0
 10
285.12472
 20
36.04679
 30
0.0
 40
0.075
  1
2.00
  7
ROMANC
 72
     1
 11
285.24972
 21
36.08429
 31
0.0
 73
     2
  0
POINT
  8
DEFPOINTS
  6
BYBLOCK
 62
     0
 10
284.24972
 20
36.00929
 30
0.0
  0
POINT
  8
DEFPOINTS
  6
BYBLOCK
 62
     0
 10
286.24972
 20
36.00929
 30
0.0
  0
POINT
  8
DEFPOINTS
  6
BYBLOCK
 62
     0
 10
286.24972
 20
36.00929
 30
0.0
  0
ENDBLK
  8
0
  0
BLOCK
  8
0
  2
*D15
 70
    65
 10
0.0
 20
0.0
 30
0.0
  3
*D
  0
LINE
  8
0
  6
BYBLOCK
 62
     0
 10
286.26472
 20
35.00929
 30
0.0
 11
286.586285
 21
35.00929
 31
0.0
  0
LINE
  8
0
  6
BYBLOCK
 62
     0
 10
286.26472
 20
36.00929
 30
0.0
 11
286.586285
 21
36.00929
 31
0.0
  0
LINE
  8
0
  6
BYBLOCK
 62
     0
 10
286.571285
 20
35.15929
 30
0.0
 11
286.571285
 21
35.85929
 31
0.0
  0
SOLID
  8
0
  6
BYBLOCK
 62
     0
 10
286.546285
 20
35.15929
 30
0.0
 11
286.596285
 21
35.15929
 31
0.0
 12
286.571285
 22
35.00929
 32
0.0
 13
286.571285
 23
35.00929
 33
0.0
  0
SOLID
  8
0
  6
BYBLOCK
 62
     0
 10
286.546285
 20
35.85929
 30
0.0
 11
286.596285
 21
35.85929
 31
0.0
 12
286.571285
 22
36.00929
 32
0.0
 13
286.571285
 23
36.00929
 33
0.0
  0
TEXT
  8
0
  6
BYBLOCK
 62
     0
 10
286.533785
 20
35.378933
 30
0.0
 40
0.075
  1
1.00
 50
90.0
  7
ROMANC
 72
     1
 11
286.496285
 21
35.50929
 31
0.0
 73
     2
  0
POINT
  8
DEFPOINTS
  6
BYBLOCK
 62
     0
 10
286.24972
 20
35.00929
 30
0.0
  0
POINT
  8
DEFPOINTS
  6
BYBLOCK
 62
     0
 10
286.24972
 20
36.00929
 30
0.0
  0
POINT
  8
DEFPOINTS
  6
BYBLOCK
 62
     0
 10
286.571285
 20
36.00929
 30
0.0
  0
ENDBLK
  8
0
  0
BLOCK
  8
0
  2
*D16
 70
    65
 10
0.0
 20
0.0
 30
0.0
  3
*D
  0
LINE
  8
0
  6
BYBLOCK
 62
     0
 10
285.26472
 20
36.50929
 30
0.0
 11
286.885594
 21
36.50929
 31
0.0
  0
LINE
  8
0
  6
BYBLOCK
 62
     0
 10
285.26472
 20
35.00929
 30
0.0
 11
286.885594
 21
35.00929
 31
0.0
  0
LINE
  8
0
  6
BYBLOCK
 62
     0
 10
286.870594
 20
36.35929
 30
0.0
 11
286.870594
 21
35.15929
 31
0.0
  0
SOLID
  8
0
  6
BYBLOCK
 62
     0
 10
286.845594
 20
36.35929
 30
0.0
 11
286.895594
 21
36.35929
 31
0.0
 12
286.870594
 22
36.50929
 32
0.0
 13
286.870594
 23
36.50929
 33
0.0
  0
SOLID
  8
0
  6
BYBLOCK
 62
     0
 10
286.845594
 20
35.15929
 30
0.0
 11
286.895594
 21
35.15929
 31
0.0
 12
286.870594
 22
35.00929
 32
0.0
 13
286.870594
 23
35.00929
 33
0.0
  0
TEXT
  8
0
  6
BYBLOCK
 62
     0
 10
286.833094
 20
35.628933
 30
0.0
 40
0.075
  1
1.50
 50
90.0
  7
ROMANC
 72
     1
 11
286.795594
 21
35.75929
 31
0.0
 73
     2
  0
POINT
  8
DEFPOINTS
  6
BYBLOCK
 62
     0
 10
285.24972
 20
36.50929
 30
0.0
  0
POINT
  8
DEFPOINTS
  6
BYBLOCK
 62
     0
 10
285.24972
 20
35.00929
 30
0.0
  0
POINT
  8
DEFPOINTS
  6
BYBLOCK
 62
     0
 10
286.870594
 20
35.00929
 30
0.0
  0
ENDBLK
  8
0
  0
ENDSEC
  0
SECTION
  2
ENTITIES
  0
TEXT
  8
0
 10
283.887846
 20
40.56142
 30
0.0
 40
0.3
  1
P = 64.2 dm
  7
ROMANC
  0
TEXT
  8
0
 10
287.122271
 20
41.564915
 30
0.0
 40
0.1
  1
2
  7
ROMANC
  0
TEXT
  8
0
 10
283.925768
 20
41.857589
 30
0.0
 40
0.3
  1
ESCALA  1:50
  7
ROMANC
  0
TEXT
  8
0
 10
283.925768
 20
42.343303
 30
0.0
 40
0.3
  1
TIPUS   NT279A
  7
ROMANC
  0
TEXT
  8
0
 10
283.938862
 20
41.258999
 30
0.0
 40
0.3
  1
S = 279 dm
  7
ROMANC
  0
ARC
  8
0
 10
285.24972
 20
34.515085
 30
0.0
 40
2.009205
 50
78.29908
 51
90.0
  0
ARC
  8
0
 10
285.403001
 20
35.255193
 30
0.0
 40
1.253391
 50
63.434949
 51
78.29908
  0
ARC
  8
0
 10
285.635682
 20
35.720555
 30
0.0
 40
0.7331
 50
39.639272
 51
63.434949
  0
ARC
  8
0
 10
285.984216
 20
36.00929
 30
0.0
 40
0.280504
 50
0.0
 51
39.639272
  0
LINE
  8
0
 10
286.26472
 20
36.00929
 30
0.0
 11
286.26472
 21
34.99429
 31
0.0
  0
LINE
  8
0
 10
286.26472
 20
34.99429
 30
0.0
 11
284.23472
 21
34.99429
 31
0.0
  0
LINE
  8
0
 10
284.23472
 20
34.99429
 30
0.0
 11
284.23472
 21
36.00929
 31
0.0
  0
ARC
  8
0
 10
284.515223
 20
36.00929
 30
0.0
 40
0.280504
 50
140.360728
 51
180.0
  0
ARC
  8
0
 10
284.863757
 20
35.720555
 30
0.0
 40
0.7331
 50
116.565051
 51
140.360728
  0
ARC
  8
0
 10
285.096438
 20
35.255193
 30
0.0
 40
1.253391
 50
101.70092
 51
116.565051
  0
ARC
  8
0
 10
285.24972
 20
34.515085
 30
0.0
 40
2.009205
 50
90.0
 51
101.70092
  0
ARC
  8
0
 10
285.24972
 20
34.515085
 30
0.0
 40
2.001705
 50
78.29908
 51
90.0
  0
ARC
  8
0
 10
285.403001
 20
35.255193
 30
0.0
 40
1.245891
 50
63.434949
 51
78.29908
  0
ARC
  8
0
 10
285.635682
 20
35.720555
 30
0.0
 40
0.7256
 50
39.639272
 51
63.434949
  0
ARC
  8
0
 10
285.984216
 20
36.00929
 30
0.0
 40
0.273004
 50
360.0
 51
39.639272
  0
LINE
  8
0
 10
286.25722
 20
36.00929
 30
0.0
 11
286.25722
 21
35.00179
 31
0.0
  0
LINE
  8
0
 10
286.25722
 20
35.00179
 30
0.0
 11
284.24222
 21
35.00179
 31
0.0
  0
LINE
  8
0
 10
284.24222
 20
35.00179
 30
0.0
 11
284.24222
 21
36.00929
 31
0.0
  0
ARC
  8
0
 10
284.515223
 20
36.00929
 30
0.0
 40
0.273004
 50
140.360728
 51
180.0
  0
ARC
  8
0
 10
284.863757
 20
35.720555
 30
0.0
 40
0.7256
 50
116.565051
 51
140.360728
  0
ARC
  8
0
 10
285.096438
 20
35.255193
 30
0.0
 40
1.245891
 50
101.70092
 51
116.565051
  0
ARC
  8
0
 10
285.24972
 20
34.515085
 30
0.0
 40
2.001705
 50
90.0
 51
101.70092
  0
LINE
  8
0
  6
BYBLOCK
 62
     0
 10
285.26472
 20
36.50929
 30
0.0
 11
286.885594
 21
36.50929
 31
0.0
  0
LINE
  8
0
  6
BYBLOCK
 62
     0
 10
285.26472
 20
35.00929
 30
0.0
 11
286.885594
 21
35.00929
 31
0.0
  0
LINE
  8
0
  6
BYBLOCK
 62
     0
 10
286.870594
 20
36.35929
 30
0.0
 11
286.870594
 21
35.15929
 31
0.0
  0
SOLID
  8
0
  6
BYBLOCK
 62
     0
 10
286.845594
 20
36.35929
 30
0.0
 11
286.895594
 21
36.35929
 31
0.0
 12
286.870594
 22
36.50929
 32
0.0
 13
286.870594
 23
36.50929
 33
0.0
  0
SOLID
  8
0
  6
BYBLOCK
 62
     0
 10
286.845594
 20
35.15929
 30
0.0
 11
286.895594
 21
35.15929
 31
0.0
 12
286.870594
 22
35.00929
 32
0.0
 13
286.870594
 23
35.00929
 33
0.0
  0
TEXT
  8
0
  6
BYBLOCK
 62
     0
 10
286.833094
 20
35.628933
 30
0.0
 40
0.075
  1
1.50
 50
90.0
  7
ROMANC
 72
     1
 11
286.795594
 21
35.75929
 31
0.0
 73
     2
  0
POINT
  8
DEFPOINTS
  6
BYBLOCK
 62
     0
 10
285.24972
 20
36.50929
 30
0.0
  0
POINT
  8
DEFPOINTS
  6
BYBLOCK
 62
     0
 10
285.24972
 20
35.00929
 30
0.0
  0
POINT
  8
DEFPOINTS
  6
BYBLOCK
 62
     0
 10
286.870594
 20
35.00929
 30
0.0
  0
LINE
  8
0
  6
BYBLOCK
 62
     0
 10
286.26472
 20
35.00929
 30
0.0
 11
286.586285
 21
35.00929
 31
0.0
  0
LINE
  8
0
  6
BYBLOCK
 62
     0
 10
286.26472
 20
36.00929
 30
0.0
 11
286.586285
 21
36.00929
 31
0.0
  0
LINE
  8
0
  6
BYBLOCK
 62
     0
 10
286.571285
 20
35.15929
 30
0.0
 11
286.571285
 21
35.85929
 31
0.0
  0
SOLID
  8
0
  6
BYBLOCK
 62
     0
 10
286.546285
 20
35.15929
 30
0.0
 11
286.596285
 21
35.15929
 31
0.0
 12
286.571285
 22
35.00929
 32
0.0
 13
286.571285
 23
35.00929
 33
0.0
  0
SOLID
  8
0
  6
BYBLOCK
 62
     0
 10
286.546285
 20
35.85929
 30
0.0
 11
286.596285
 21
35.85929
 31
0.0
 12
286.571285
 22
36.00929
 32
0.0
 13
286.571285
 23
36.00929
 33
0.0
  0
TEXT
  8
0
  6
BYBLOCK
 62
     0
 10
286.533785
 20
35.378933
 30
0.0
 40
0.075
  1
1.00
 50
90.0
  7
ROMANC
 72
     1
 11
286.496285
 21
35.50929
 31
0.0
 73
     2
  0
POINT
  8
DEFPOINTS
  6
BYBLOCK
 62
     0
 10
286.24972
 20
35.00929
 30
0.0
  0
POINT
  8
DEFPOINTS
  6
BYBLOCK
 62
     0
 10
286.24972
 20
36.00929
 30
0.0
  0
POINT
  8
DEFPOINTS
  6
BYBLOCK
 62
     0
 10
286.571285
 20
36.00929
 30
0.0
  0
LINE
  8
0
  6
BYBLOCK
 62
     0
 10
284.24972
 20
36.02429
 30
0.0
 11
284.24972
 21
36.02429
 31
0.0
  0
LINE
  8
0
  6
BYBLOCK
 62
     0
 10
286.24972
 20
36.02429
 30
0.0
 11
286.24972
 21
36.02429
 31
0.0
  0
LINE
  8
0
  6
BYBLOCK
 62
     0
 10
284.39972
 20
36.00929
 30
0.0
 11
286.09972
 21
36.00929
 31
0.0
  0
SOLID
  8
0
  6
BYBLOCK
 62
     0
 10
284.39972
 20
36.03429
 30
0.0
 11
284.39972
 21
35.98429
 31
0.0
 12
284.24972
 22
36.00929
 32
0.0
 13
284.24972
 23
36.00929
 33
0.0
  0
SOLID
  8
0
  6
BYBLOCK
 62
     0
 10
286.09972
 20
36.03429
 30
0.0
 11
286.09972
 21
35.98429
 31
0.0
 12
286.24972
 22
36.00929
 32
0.0
 13
286.24972
 23
36.00929
 33
0.0
  0
TEXT
  8
0
  6
BYBLOCK
 62
     0
 10
285.12472
 20
36.04679
 30
0.0
 40
0.075
  1
2.00
  7
ROMANC
 72
     1
 11
285.24972
 21
36.08429
 31
0.0
 73
     2
  0
POINT
  8
DEFPOINTS
  6
BYBLOCK
 62
     0
 10
284.24972
 20
36.00929
 30
0.0
  0
POINT
  8
DEFPOINTS
  6
BYBLOCK
 62
     0
 10
286.24972
 20
36.00929
 30
0.0
  0
POINT
  8
DEFPOINTS
  6
BYBLOCK
 62
     0
 10
286.24972
 20
36.00929
 30
0.0
  0
LINE
  8
0
  6
BYBLOCK
 62
     0
 10
286.24972
 20
34.99429
 30
0.0
 11
286.24972
 21
34.685938
 31
0.0
  0
LINE
  8
0
  6
BYBLOCK
 62
     0
 10
284.24972
 20
34.99429
 30
0.0
 11
284.24972
 21
34.685938
 31
0.0
  0
LINE
  8
0
  6
BYBLOCK
 62
     0
 10
286.09972
 20
34.700938
 30
0.0
 11
284.39972
 21
34.700938
 31
0.0
  0
SOLID
  8
0
  6
BYBLOCK
 62
     0
 10
286.09972
 20
34.725938
 30
0.0
 11
286.09972
 21
34.675938
 31
0.0
 12
286.24972
 22
34.700938
 32
0.0
 13
286.24972
 23
34.700938
 33
0.0
  0
SOLID
  8
0
  6
BYBLOCK
 62
     0
 10
284.39972
 20
34.725938
 30
0.0
 11
284.39972
 21
34.675938
 31
0.0
 12
284.24972
 22
34.700938
 32
0.0
 13
284.24972
 23
34.700938
 33
0.0
  0
TEXT
  8
0
  6
BYBLOCK
 62
     0
 10
285.12472
 20
34.738438
 30
0.0
 40
0.075
  1
2.00
  7
ROMANC
 72
     1
 11
285.24972
 21
34.775938
 31
0.0
 73
     2
  0
POINT
  8
DEFPOINTS
  6
BYBLOCK
 62
     0
 10
286.24972
 20
35.00929
 30
0.0
  0
POINT
  8
DEFPOINTS
  6
BYBLOCK
 62
     0
 10
284.24972
 20
35.00929
 30
0.0
  0
POINT
  8
DEFPOINTS
  6
BYBLOCK
 62
     0
 10
284.24972
 20
34.700938
 30
0.0
  0
ARC
  8
0
 10
285.24972
 20
34.515085
 30
0.0
 40
1.994205
 50
78.29908
 51
90.0
  0
ARC
  8
0
 10
285.403001
 20
35.255193
 30
0.0
 40
1.238391
 50
63.434949
 51
78.29908
  0
ARC
  8
0
 10
285.635682
 20
35.720555
 30
0.0
 40
0.7181
 50
39.639272
 51
63.434949
  0
ARC
  8
0
 10
285.984216
 20
36.00929
 30
0.0
 40
0.265504
 50
0.0
 51
39.639272
  0
LINE
  8
0
 10
286.24972
 20
36.00929
 30
0.0
 11
286.24972
 21
35.00929
 31
0.0
  0
LINE
  8
0
 10
286.24972
 20
35.00929
 30
0.0
 11
284.24972
 21
35.00929
 31
0.0
  0
LINE
  8
0
 10
284.24972
 20
35.00929
 30
0.0
 11
284.24972
 21
36.00929
 31
0.0
  0
ARC
  8
0
 10
284.515223
 20
36.00929
 30
0.0
 40
0.265504
 50
140.360728
 51
180.0
  0
ARC
  8
0
 10
284.863757
 20
35.720555
 30
0.0
 40
0.7181
 50
116.565051
 51
140.360728
  0
ARC
  8
0
 10
285.096438
 20
35.255193
 30
0.0
 40
1.238391
 50
101.70092
 51
116.565051
  0
ARC
  8
0
 10
285.24972
 20
34.515085
 30
0.0
 40
1.994205
 50
90.0
 51
101.70092
  0
LINE
  8
0
 10
281.395795
 20
29.897444
 30
0.0
 11
281.395795
 21
44.747444
 31
0.0
  0
LINE
  8
0
 10
281.395795
 20
44.747444
 30
0.0
 11
291.895795
 21
44.747444
 31
0.0
  0
LINE
  8
0
 10
291.895795
 20
44.747444
 30
0.0
 11
291.895795
 21
29.897444
 31
0.0
  0
LINE
  8
0
 10
291.895795
 20
29.897444
 30
0.0
 11
281.395795
 21
29.897444
 31
0.0
  0
ENDSEC
  0
EOF
