  0
SECTION
  2
HEADER
  9
$ACADVER
  1
AC1009
  9
$INSBASE
 10
0.0
 20
0.0
 30
0.0
  9
$EXTMIN
 10
318.829805
 20
29.85788
 30
0.0
  9
$EXTMAX
 10
329.371339
 20
44.72551
 30
0.0
  9
$LIMMIN
 10
0.0
 20
0.0
  9
$LIMMAX
 10
410.0
 20
287.0
  9
$ORTHOMODE
 70
     1
  9
$REGENMODE
 70
     1
  9
$FILLMODE
 70
     1
  9
$QTEXTMODE
 70
     0
  9
$MIRRTEXT
 70
     1
  9
$DRAGMODE
 70
     2
  9
$LTSCALE
 40
25.0
  9
$OSMODE
 70
     0
  9
$ATTMODE
 70
     1
  9
$TEXTSIZE
 40
0.1
  9
$TRACEWID
 40
1.0
  9
$TEXTSTYLE
  7
ROMANC
  9
$CLAYER
  8
0
  9
$CELTYPE
  6
BYLAYER
  9
$CECOLOR
 62
   256
  9
$DIMSCALE
 40
1.5
  9
$DIMASZ
 40
0.1
  9
$DIMEXO
 40
0.01
  9
$DIMDLI
 40
7.0
  9
$DIMRND
 40
0.0
  9
$DIMDLE
 40
0.0
  9
$DIMEXE
 40
0.01
  9
$DIMTP
 40
0.0
  9
$DIMTM
 40
0.0
  9
$DIMTXT
 40
0.05
  9
$DIMCEN
 40
0.0
  9
$DIMTSZ
 40
0.0
  9
$DIMTOL
 70
     0
  9
$DIMLIM
 70
     0
  9
$DIMTIH
 70
     0
  9
$DIMTOH
 70
     0
  9
$DIMSE1
 70
     0
  9
$DIMSE2
 70
     0
  9
$DIMTAD
 70
     1
  9
$DIMZIN
 70
     0
  9
$DIMBLK
  1

  9
$DIMASO
 70
     1
  9
$DIMSHO
 70
     0
  9
$DIMPOST
  1

  9
$DIMAPOST
  1

  9
$DIMALT
 70
     0
  9
$DIMALTD
 70
     2
  9
$DIMALTF
 40
25.4
  9
$DIMLFAC
 40
1.0
  9
$DIMTOFL
 70
     1
  9
$DIMTVP
 40
0.0
  9
$DIMTIX
 70
     1
  9
$DIMSOXD
 70
     0
  9
$DIMSAH
 70
     0
  9
$DIMBLK1
  1

  9
$DIMBLK2
  1

  9
$DIMSTYLE
  2
MERITXELL
  9
$DIMCLRD
 70
     0
  9
$DIMCLRE
 70
     0
  9
$DIMCLRT
 70
     0
  9
$DIMTFAC
 40
70.0
  9
$DIMGAP
 40
0.025
  9
$LUNITS
 70
     2
  9
$LUPREC
 70
     2
  9
$SKETCHINC
 40
1.0
  9
$FILLETRAD
 40
0.0
  9
$AUNITS
 70
     0
  9
$AUPREC
 70
     0
  9
$MENU
  1
acad
  9
$ELEVATION
 40
0.0
  9
$PELEVATION
 40
0.0
  9
$THICKNESS
 40
0.0
  9
$LIMCHECK
 70
     0
  9
$BLIPMODE
 70
     0
  9
$CHAMFERA
 40
0.0
  9
$CHAMFERB
 40
0.0
  9
$SKPOLY
 70
     0
  9
$TDCREATE
 40
2450927.46195
  9
$TDUPDATE
 40
2450984.573641
  9
$TDINDWG
 40
0.079645
  9
$TDUSRTIMER
 40
0.079645
  9
$USRTIMER
 70
     1
  9
$ANGBASE
 50
0.0
  9
$ANGDIR
 70
     0
  9
$PDMODE
 70
     0
  9
$PDSIZE
 40
0.0
  9
$PLINEWID
 40
0.0
  9
$COORDS
 70
     2
  9
$SPLFRAME
 70
     0
  9
$SPLINETYPE
 70
     6
  9
$SPLINESEGS
 70
     8
  9
$ATTDIA
 70
     0
  9
$ATTREQ
 70
     1
  9
$HANDLING
 70
     1
  9
$HANDSEED
  5
2FD
  9
$SURFTAB1
 70
     6
  9
$SURFTAB2
 70
     6
  9
$SURFTYPE
 70
     6
  9
$SURFU
 70
     6
  9
$SURFV
 70
     6
  9
$UCSNAME
  2

  9
$UCSORG
 10
0.0
 20
0.0
 30
0.0
  9
$UCSXDIR
 10
1.0
 20
0.0
 30
0.0
  9
$UCSYDIR
 10
0.0
 20
1.0
 30
0.0
  9
$PUCSNAME
  2

  9
$PUCSORG
 10
0.0
 20
0.0
 30
0.0
  9
$PUCSXDIR
 10
1.0
 20
0.0
 30
0.0
  9
$PUCSYDIR
 10
0.0
 20
1.0
 30
0.0
  9
$USERI1
 70
     0
  9
$USERI2
 70
     0
  9
$USERI3
 70
     0
  9
$USERI4
 70
     0
  9
$USERI5
 70
     0
  9
$USERR1
 40
0.0
  9
$USERR2
 40
0.0
  9
$USERR3
 40
0.0
  9
$USERR4
 40
0.0
  9
$USERR5
 40
0.0
  9
$WORLDVIEW
 70
     1
  9
$SHADEDGE
 70
     3
  9
$SHADEDIF
 70
    70
  9
$TILEMODE
 70
     1
  9
$MAXACTVP
 70
    16
  9
$PLIMCHECK
 70
     0
  9
$PEXTMIN
 10
1.000000E+020
 20
1.000000E+020
 30
1.000000E+020
  9
$PEXTMAX
 10
-1.000000E+020
 20
-1.000000E+020
 30
-1.000000E+020
  9
$PLIMMIN
 10
0.0
 20
0.0
  9
$PLIMMAX
 10
12.0
 20
9.0
  9
$UNITMODE
 70
     0
  9
$VISRETAIN
 70
     0
  9
$PLINEGEN
 70
     0
  9
$PSLTSCALE
 70
     0
  0
ENDSEC
  0
SECTION
  2
TABLES
  0
TABLE
  2
VPORT
 70
    15
  0
VPORT
  2
*ACTIVE
 70
     0
 10
0.0
 20
0.0
 11
1.0
 21
1.0
 12
324.100572
 22
37.291695
 13
0.0
 23
0.0
 14
1.0
 24
1.0
 15
10.0
 25
10.0
 16
0.0
 26
0.0
 36
1.0
 17
0.0
 27
0.0
 37
0.0
 40
14.996726
 41
1.662319
 42
50.0
 43
0.0
 44
0.0
 50
0.0
 51
0.0
 71
     0
 72
   100
 73
     1
 74
     0
 75
     0
 76
     0
 77
     0
 78
     1
  0
ENDTAB
  0
TABLE
  2
LTYPE
 70
     1
  0
LTYPE
  2
CONTINUOUS
 70
     0
  3
Solid line
 72
    65
 73
     0
 40
0.0
  0
ENDTAB
  0
TABLE
  2
LAYER
 70
     2
  0
LAYER
  2
0
 70
     0
 62
     7
  6
CONTINUOUS
  0
LAYER
  2
DEFPOINTS
 70
     0
 62
     7
  6
CONTINUOUS
  0
ENDTAB
  0
TABLE
  2
STYLE
 70
     2
  0
STYLE
  2
STANDARD
 70
     0
 40
0.0
 41
1.0
 50
0.0
 71
     0
 42
0.1
  3
txt
  4

  0
STYLE
  2
ROMANC
 70
     0
 40
0.0
 41
1.0
 50
0.0
 71
     0
 42
0.1
  3
romanc
  4

  0
ENDTAB
  0
TABLE
  2
VIEW
 70
     0
  0
ENDTAB
  0
TABLE
  2
UCS
 70
     0
  0
ENDTAB
  0
TABLE
  2
APPID
 70
     1
  0
APPID
  2
ACAD
 70
     0
  0
ENDTAB
  0
TABLE
  2
DIMSTYLE
 70
     1
  0
DIMSTYLE
  2
MERITXELL
 70
     0
  3

  4

  5

  6

  7

 40
1.5
 41
0.1
 42
0.01
 43
7.0
 44
0.01
 45
0.0
 46
0.0
 47
0.0
 48
0.0
140
0.05
141
0.1
142
0.0
143
25.4
144
1.0
145
0.0
146
70.0
147
0.09
 71
     0
 72
     0
 73
     0
 74
     0
 75
     0
 76
     0
 77
     1
 78
     0
170
     0
171
     2
172
     1
173
     0
174
     1
175
     0
176
     0
177
     0
178
     0
  0
ENDTAB
  0
ENDSEC
  0
SECTION
  2
BLOCKS
  0
BLOCK
  8
0
  2
$MODEL_SPACE
 70
     0
 10
0.0
 20
0.0
 30
0.0
  3
$MODEL_SPACE
  1

  0
ENDBLK
  5
24
  8
0
  0
BLOCK
 67
     1
  8
0
  2
$PAPER_SPACE
 70
     0
 10
0.0
 20
0.0
 30
0.0
  3
$PAPER_SPACE
  1

  0
ENDBLK
  5
22
 67
     1
  8
0
  0
BLOCK
  8
0
  2
*D3
 70
     1
 10
0.0
 20
0.0
 30
0.0
  3
*D3
  1

  0
LINE
  5
90
  8
0
  6
BYBLOCK
 62
     0
 10
324.645591
 20
36.219039
 30
0.0
 11
325.103622
 21
36.219039
 31
0.0
  0
LINE
  5
91
  8
0
  6
BYBLOCK
 62
     0
 10
324.645591
 20
34.519039
 30
0.0
 11
325.103622
 21
34.519039
 31
0.0
  0
LINE
  5
92
  8
0
  6
BYBLOCK
 62
     0
 10
325.088622
 20
36.069039
 30
0.0
 11
325.088622
 21
34.669039
 31
0.0
  0
SOLID
  5
93
  8
0
  6
BYBLOCK
 62
     0
 10
325.063622
 20
36.069039
 30
0.0
 11
325.113622
 21
36.069039
 31
0.0
 12
325.088622
 22
36.219039
 32
0.0
 13
325.088622
 23
36.219039
 33
0.0
  0
SOLID
  5
94
  8
0
  6
BYBLOCK
 62
     0
 10
325.063622
 20
34.669039
 30
0.0
 11
325.113622
 21
34.669039
 31
0.0
 12
325.088622
 22
34.519039
 32
0.0
 13
325.088622
 23
34.519039
 33
0.0
  0
TEXT
  8
0
  40
0.075
  5
2ED
  62
0
  72
0
  71
0
 10
324.864
 20
35.2363
 30
0.000000
  1
1.70
  7
ROMANC
  0
POINT
  5
96
  8
DEFPOINTS
  6
BYBLOCK
 62
     0
 10
324.630591
 20
36.219039
 30
0.0
  0
POINT
  5
97
  8
DEFPOINTS
  6
BYBLOCK
 62
     0
 10
324.630591
 20
34.519039
 30
0.0
  0
POINT
  5
98
  8
DEFPOINTS
  6
BYBLOCK
 62
     0
 10
325.088622
 20
34.519039
 30
0.0
  0
ENDBLK
  5
99
  8
0
  0
BLOCK
  8
0
  2
*D5
 70
     1
 10
0.0
 20
0.0
 30
0.0
  3
*D5
  1

  0
LINE
  5
C0
  8
0
  6
BYBLOCK
 62
     0
 10
322.730591
 20
34.504039
 30
0.0
 11
322.730591
 21
33.951746
 31
0.0
  0
LINE
  5
C1
  8
0
  6
BYBLOCK
 62
     0
 10
324.630591
 20
34.504039
 30
0.0
 11
324.630591
 21
33.951746
 31
0.0
  0
LINE
  5
C2
  8
0
  6
BYBLOCK
 62
     0
 10
322.880591
 20
33.966746
 30
0.0
 11
324.480591
 21
33.966746
 31
0.0
  0
SOLID
  5
C3
  8
0
  6
BYBLOCK
 62
     0
 10
322.880591
 20
33.991746
 30
0.0
 11
322.880591
 21
33.941746
 31
0.0
 12
322.730591
 22
33.966746
 32
0.0
 13
322.730591
 23
33.966746
 33
0.0
  0
SOLID
  5
C4
  8
0
  6
BYBLOCK
 62
     0
 10
324.480591
 20
33.991746
 30
0.0
 11
324.480591
 21
33.941746
 31
0.0
 12
324.630591
 22
33.966746
 32
0.0
 13
324.630591
 23
33.966746
 33
0.0
  0
TEXT
  8
0
  40
0.075
  5
2EE
  62
0
  72
0
  71
0
 10
323.531
 20
33.9090
 30
0.000000
  1
1.90
  7
ROMANC
  0
POINT
  5
C6
  8
DEFPOINTS
  6
BYBLOCK
 62
     0
 10
322.730591
 20
34.519039
 30
0.0
  0
POINT
  5
C7
  8
DEFPOINTS
  6
BYBLOCK
 62
     0
 10
324.630591
 20
34.519039
 30
0.0
  0
POINT
  5
C8
  8
DEFPOINTS
  6
BYBLOCK
 62
     0
 10
324.630591
 20
33.966746
 30
0.0
  0
ENDBLK
  5
C9
  8
0
  0
BLOCK
  8
0
  2
*D6
 70
     1
 10
0.0
 20
0.0
 30
0.0
  3
*D6
  1

  0
LINE
  5
107
  8
0
  6
BYBLOCK
 62
     0
 10
324.645591
 20
34.519039
 30
0.0
 11
325.103622
 21
34.519039
 31
0.0
  0
LINE
  5
108
  8
0
  6
BYBLOCK
 62
     0
 10
323.695591
 20
34.369039
 30
0.0
 11
325.103622
 21
34.369039
 31
0.0
  0
LINE
  5
109
  8
0
  6
BYBLOCK
 62
     0
 10
325.088622
 20
34.669039
 30
0.0
 11
325.088622
 21
34.819039
 31
0.0
  0
LINE
  5
10A
  8
0
  6
BYBLOCK
 62
     0
 10
325.088622
 20
34.219039
 30
0.0
 11
325.088622
 21
34.069039
 31
0.0
  0
TEXT
  8
0
  40
0.075
  5
2EF
  62
0
  72
0
  71
0
 10
324.851
 20
34.0793
 30
0.000000
  1
0.15
  7
ROMANC
  0
LINE
  5
10C
  8
0
  6
BYBLOCK
 62
     0
 10
325.088622
 20
34.519039
 30
0.0
 11
325.088622
 21
34.369039
 31
0.0
  0
LINE
  5
10D
  8
0
  6
BYBLOCK
 62
     0
 10
325.088622
 20
34.519039
 30
0.0
 11
325.088622
 21
34.369039
 31
0.0
  0
SOLID
  5
10E
  8
0
  6
BYBLOCK
 62
     0
 10
325.063622
 20
34.669039
 30
0.0
 11
325.113622
 21
34.669039
 31
0.0
 12
325.088622
 22
34.519039
 32
0.0
 13
325.088622
 23
34.519039
 33
0.0
  0
SOLID
  5
10F
  8
0
  6
BYBLOCK
 62
     0
 10
325.063622
 20
34.219039
 30
0.0
 11
325.113622
 21
34.219039
 31
0.0
 12
325.088622
 22
34.369039
 32
0.0
 13
325.088622
 23
34.369039
 33
0.0
  0
POINT
  5
110
  8
DEFPOINTS
  6
BYBLOCK
 62
     0
 10
324.630591
 20
34.519039
 30
0.0
  0
POINT
  5
111
  8
DEFPOINTS
  6
BYBLOCK
 62
     0
 10
323.680591
 20
34.369039
 30
0.0
  0
POINT
  5
112
  8
DEFPOINTS
  6
BYBLOCK
 62
     0
 10
325.088622
 20
34.369039
 30
0.0
  0
ENDBLK
  5
113
  8
0
  0
BLOCK
  8
0
  2
*D7
 70
     1
 10
0.0
 20
0.0
 30
0.0
  3
*D7
  1

  0
LINE
  5
116
  8
0
  6
BYBLOCK
 62
     0
 10
324.645591
 20
36.219039
 30
0.0
 11
325.501023
 21
36.219039
 31
0.0
  0
LINE
  5
117
  8
0
  6
BYBLOCK
 62
     0
 10
323.695591
 20
34.369039
 30
0.0
 11
325.501023
 21
34.369039
 31
0.0
  0
LINE
  5
118
  8
0
  6
BYBLOCK
 62
     0
 10
325.486023
 20
36.069039
 30
0.0
 11
325.486023
 21
34.519039
 31
0.0
  0
SOLID
  5
119
  8
0
  6
BYBLOCK
 62
     0
 10
325.461023
 20
36.069039
 30
0.0
 11
325.511023
 21
36.069039
 31
0.0
 12
325.486023
 22
36.219039
 32
0.0
 13
325.486023
 23
36.219039
 33
0.0
  0
SOLID
  5
11A
  8
0
  6
BYBLOCK
 62
     0
 10
325.461023
 20
34.519039
 30
0.0
 11
325.511023
 21
34.519039
 31
0.0
 12
325.486023
 22
34.369039
 32
0.0
 13
325.486023
 23
34.369039
 33
0.0
  0
TEXT
  8
0
  40
0.075
  5
2F0
  62
0
  72
0
  71
0
 10
325.261
 20
35.1613
 30
0.000000
  1
1.85
  7
ROMANC
  0
POINT
  5
11C
  8
DEFPOINTS
  6
BYBLOCK
 62
     0
 10
324.630591
 20
36.219039
 30
0.0
  0
POINT
  5
11D
  8
DEFPOINTS
  6
BYBLOCK
 62
     0
 10
323.680591
 20
34.369039
 30
0.0
  0
POINT
  5
11E
  8
DEFPOINTS
  6
BYBLOCK
 62
     0
 10
325.486023
 20
34.369039
 30
0.0
  0
ENDBLK
  5
11F
  8
0
  0
BLOCK
  8
0
  2
*D8
 70
     1
 10
0.0
 20
0.0
 30
0.0
  3
*D8
  1

  0
LINE
  5
1AB
  8
0
  6
BYBLOCK
 62
     0
 10
322.083475
 20
34.340324
 30
0.0
 11
322.083475
 21
33.785381
 31
0.0
  0
LINE
  5
1AC
  8
0
  6
BYBLOCK
 62
     0
 10
325.083475
 20
34.340324
 30
0.0
 11
325.083475
 21
33.785381
 31
0.0
  0
LINE
  5
1AD
  8
0
  6
BYBLOCK
 62
     0
 10
322.233475
 20
33.800381
 30
0.0
 11
324.933475
 21
33.800381
 31
0.0
  0
SOLID
  5
1AE
  8
0
  6
BYBLOCK
 62
     0
 10
322.233475
 20
33.825381
 30
0.0
 11
322.233475
 21
33.775381
 31
0.0
 12
322.083475
 22
33.800381
 32
0.0
 13
322.083475
 23
33.800381
 33
0.0
  0
SOLID
  5
1AF
  8
0
  6
BYBLOCK
 62
     0
 10
324.933475
 20
33.825381
 30
0.0
 11
324.933475
 21
33.775381
 31
0.0
 12
325.083475
 22
33.800381
 32
0.0
 13
325.083475
 23
33.800381
 33
0.0
  0
TEXT
  8
0
  40
0.075
  5
2F1
  62
0
  72
0
  71
0
 10
323.433
 20
33.7426
 30
0.000000
  1
1.50
  7
ROMANC
  0
POINT
  5
1B1
  8
DEFPOINTS
  6
BYBLOCK
 62
     0
 10
322.083475
 20
34.355324
 30
0.0
  0
POINT
  5
1B2
  8
DEFPOINTS
  6
BYBLOCK
 62
     0
 10
325.083475
 20
34.355324
 30
0.0
  0
POINT
  5
1B3
  8
DEFPOINTS
  6
BYBLOCK
 62
     0
 10
325.083475
 20
33.800381
 30
0.0
  0
ENDBLK
  5
1B4
  8
0
  0
BLOCK
  8
0
  2
*D9
 70
     1
 10
0.0
 20
0.0
 30
0.0
  3
*D9
  1

  0
LINE
  5
1A0
  8
0
  6
BYBLOCK
 62
     0
 10
323.683505
 20
35.253877
 30
0.0
 11
325.553382
 21
35.253877
 31
0.0
  0
LINE
  5
1A1
  8
0
  6
BYBLOCK
 62
     0
 10
325.098475
 20
34.355324
 30
0.0
 11
325.553382
 21
34.355324
 31
0.0
  0
LINE
  5
1A2
  8
0
  6
BYBLOCK
 62
     0
 10
325.538382
 20
35.103877
 30
0.0
 11
325.538382
 21
34.505324
 31
0.0
  0
SOLID
  5
1A3
  8
0
  6
BYBLOCK
 62
     0
 10
325.513382
 20
35.103877
 30
0.0
 11
325.563382
 21
35.103877
 31
0.0
 12
325.538382
 22
35.253877
 32
0.0
 13
325.538382
 23
35.253877
 33
0.0
  0
SOLID
  5
1A4
  8
0
  6
BYBLOCK
 62
     0
 10
325.513382
 20
34.505324
 30
0.0
 11
325.563382
 21
34.505324
 31
0.0
 12
325.538382
 22
34.355324
 32
0.0
 13
325.538382
 23
34.355324
 33
0.0
  0
TEXT
  8
0
  40
0.075
  5
2F2
  62
0
  72
0
  71
0
 10
325.313
 20
34.6719
 30
0.000000
  1
0.45
  7
ROMANC
  0
POINT
  5
1A6
  8
DEFPOINTS
  6
BYBLOCK
 62
     0
 10
323.668505
 20
35.253877
 30
0.0
  0
POINT
  5
1A7
  8
DEFPOINTS
  6
BYBLOCK
 62
     0
 10
325.083475
 20
34.355324
 30
0.0
  0
POINT
  5
1A8
  8
DEFPOINTS
  6
BYBLOCK
 62
     0
 10
325.538382
 20
34.355324
 30
0.0
  0
ENDBLK
  5
1A9
  8
0
  0
BLOCK
  8
0
  2
*D10
 70
     1
 10
0.0
 20
0.0
 30
0.0
  3
*D10
  1

  0
LINE
  5
23E
  8
0
  6
BYBLOCK
 62
     0
 10
324.817307
 20
34.10835
 30
0.0
 11
324.817307
 21
33.643872
 31
0.0
  0
LINE
  5
23F
  8
0
  6
BYBLOCK
 62
     0
 10
321.817307
 20
34.10835
 30
0.0
 11
321.817307
 21
33.643872
 31
0.0
  0
LINE
  5
240
  8
0
  6
BYBLOCK
 62
     0
 10
324.667307
 20
33.658872
 30
0.0
 11
321.967307
 21
33.658872
 31
0.0
  0
SOLID
  5
241
  8
0
  6
BYBLOCK
 62
     0
 10
324.667307
 20
33.683872
 30
0.0
 11
324.667307
 21
33.633872
 31
0.0
 12
324.817307
 22
33.658872
 32
0.0
 13
324.817307
 23
33.658872
 33
0.0
  0
SOLID
  5
242
  8
0
  6
BYBLOCK
 62
     0
 10
321.967307
 20
33.683872
 30
0.0
 11
321.967307
 21
33.633872
 31
0.0
 12
321.817307
 22
33.658872
 32
0.0
 13
321.817307
 23
33.658872
 33
0.0
  0
TEXT
  8
0
  40
0.075
  5
2F3
  62
0
  72
0
  71
0
 10
323.167
 20
33.6011
 30
0.000000
  1
3.00
  7
ROMANC
  0
POINT
  5
244
  8
DEFPOINTS
  6
BYBLOCK
 62
     0
 10
324.817307
 20
34.12335
 30
0.0
  0
POINT
  5
245
  8
DEFPOINTS
  6
BYBLOCK
 62
     0
 10
321.817307
 20
34.12335
 30
0.0
  0
POINT
  5
246
  8
DEFPOINTS
  6
BYBLOCK
 62
     0
 10
321.817307
 20
33.658872
 30
0.0
  0
ENDBLK
  5
247
  8
0
  0
BLOCK
  8
0
  2
*D11
 70
     1
 10
0.0
 20
0.0
 30
0.0
  3
*D11
  1

  0
LINE
  5
24B
  8
0
  6
BYBLOCK
 62
     0
 10
323.351267
 20
35.773218
 30
0.0
 11
325.332831
 21
35.773218
 31
0.0
  0
LINE
  5
24C
  8
0
  6
BYBLOCK
 62
     0
 10
324.832307
 20
34.12335
 30
0.0
 11
325.332831
 21
34.12335
 31
0.0
  0
LINE
  5
24D
  8
0
  6
BYBLOCK
 62
     0
 10
325.317831
 20
35.623218
 30
0.0
 11
325.317831
 21
34.27335
 31
0.0
  0
SOLID
  5
24E
  8
0
  6
BYBLOCK
 62
     0
 10
325.292831
 20
35.623218
 30
0.0
 11
325.342831
 21
35.623218
 31
0.0
 12
325.317831
 22
35.773218
 32
0.0
 13
325.317831
 23
35.773218
 33
0.0
  0
SOLID
  5
24F
  8
0
  6
BYBLOCK
 62
     0
 10
325.292831
 20
34.27335
 30
0.0
 11
325.342831
 21
34.27335
 31
0.0
 12
325.317831
 22
34.12335
 32
0.0
 13
325.317831
 23
34.12335
 33
0.0
  0
TEXT
  8
0
  40
0.075
  5
2F4
  62
0
  72
0
  71
0
 10
325.093
 20
34.8155
 30
0.000000
  1
1.65
  7
ROMANC
  0
POINT
  5
251
  8
DEFPOINTS
  6
BYBLOCK
 62
     0
 10
323.336267
 20
35.773218
 30
0.0
  0
POINT
  5
252
  8
DEFPOINTS
  6
BYBLOCK
 62
     0
 10
324.817307
 20
34.12335
 30
0.0
  0
POINT
  5
253
  8
DEFPOINTS
  6
BYBLOCK
 62
     0
 10
325.317831
 20
34.12335
 30
0.0
  0
ENDBLK
  5
254
  8
0
  0
BLOCK
  8
0
  2
*D12
 70
     1
 10
0.0
 20
0.0
 30
0.0
  3
*D12
  1

  0
LINE
  5
267
  8
0
  6
BYBLOCK
 62
     0
 10
323.936787
 20
33.435276
 30
0.0
 11
323.936787
 21
33.194612
 31
0.0
  0
LINE
  5
268
  8
0
  6
BYBLOCK
 62
     0
 10
324.086787
 20
33.685276
 30
0.0
 11
324.086787
 21
33.194612
 31
0.0
  0
LINE
  5
269
  8
0
  6
BYBLOCK
 62
     0
 10
323.786787
 20
33.209612
 30
0.0
 11
323.636787
 21
33.209612
 31
0.0
  0
LINE
  5
26A
  8
0
  6
BYBLOCK
 62
     0
 10
324.236787
 20
33.209612
 30
0.0
 11
324.386787
 21
33.209612
 31
0.0
  0
LINE
  5
26B
  8
0
  6
BYBLOCK
 62
     0
 10
323.936787
 20
33.209612
 30
0.0
 11
324.086787
 21
33.209612
 31
0.0
  0
SOLID
  5
26C
  8
0
  6
BYBLOCK
 62
     0
 10
323.786787
 20
33.234612
 30
0.0
 11
323.786787
 21
33.184612
 31
0.0
 12
323.936787
 22
33.209612
 32
0.0
 13
323.936787
 23
33.209612
 33
0.0
  0
SOLID
  5
26D
  8
0
  6
BYBLOCK
 62
     0
 10
324.236787
 20
33.234612
 30
0.0
 11
324.236787
 21
33.184612
 31
0.0
 12
324.086787
 22
33.209612
 32
0.0
 13
324.086787
 23
33.209612
 33
0.0
  0
TEXT
  8
0
  40
0.075
  5
2F5
  62
0
  72
0
  71
0
 10
323.862
 20
33.1519
 30
0.000000
  1
0.15
  7
ROMANC
  0
POINT
  5
26F
  8
DEFPOINTS
  6
BYBLOCK
 62
     0
 10
323.936787
 20
33.450276
 30
0.0
  0
POINT
  5
270
  8
DEFPOINTS
  6
BYBLOCK
 62
     0
 10
324.086787
 20
33.700276
 30
0.0
  0
POINT
  5
271
  8
DEFPOINTS
  6
BYBLOCK
 62
     0
 10
324.086787
 20
33.209612
 30
0.0
  0
ENDBLK
  5
272
  8
0
  0
BLOCK
  8
0
  2
*D13
 70
     1
 10
0.0
 20
0.0
 30
0.0
  3
*D13
  1

  0
LINE
  5
284
  8
0
  6
BYBLOCK
 62
     0
 10
324.101787
 20
33.700276
 30
0.0
 11
324.495184
 21
33.700276
 31
0.0
  0
LINE
  5
285
  8
0
  6
BYBLOCK
 62
     0
 10
323.951787
 20
33.450276
 30
0.0
 11
324.495184
 21
33.450276
 31
0.0
  0
LINE
  5
286
  8
0
  6
BYBLOCK
 62
     0
 10
324.480184
 20
33.850276
 30
0.0
 11
324.480184
 21
34.000276
 31
0.0
  0
LINE
  5
287
  8
0
  6
BYBLOCK
 62
     0
 10
324.480184
 20
33.300276
 30
0.0
 11
324.480184
 21
33.150276
 31
0.0
  0
LINE
  5
288
  8
0
  6
BYBLOCK
 62
     0
 10
324.480184
 20
33.700276
 30
0.0
 11
324.480184
 21
33.450276
 31
0.0
  0
SOLID
  5
289
  8
0
  6
BYBLOCK
 62
     0
 10
324.455184
 20
33.850276
 30
0.0
 11
324.505184
 21
33.850276
 31
0.0
 12
324.480184
 22
33.700276
 32
0.0
 13
324.480184
 23
33.700276
 33
0.0
  0
SOLID
  5
28A
  8
0
  6
BYBLOCK
 62
     0
 10
324.455184
 20
33.300276
 30
0.0
 11
324.505184
 21
33.300276
 31
0.0
 12
324.480184
 22
33.450276
 32
0.0
 13
324.480184
 23
33.450276
 33
0.0
  0
TEXT
  8
0
  40
0.075
  5
2F6
  62
0
  72
0
  71
0
 10
324.255
 20
33.4425
 30
0.000000
  1
0.25
  7
ROMANC
  0
POINT
  5
28C
  8
DEFPOINTS
  6
BYBLOCK
 62
     0
 10
324.086787
 20
33.700276
 30
0.0
  0
POINT
  5
28D
  8
DEFPOINTS
  6
BYBLOCK
 62
     0
 10
323.936787
 20
33.450276
 30
0.0
  0
POINT
  5
28E
  8
DEFPOINTS
  6
BYBLOCK
 62
     0
 10
324.480184
 20
33.450276
 30
0.0
  0
ENDBLK
  5
28F
  8
0
  0
BLOCK
  8
0
  2
*D14
 70
     1
 10
0.0
 20
0.0
 30
0.0
  3
*D14
  1

  0
LINE
  5
292
  8
0
  6
BYBLOCK
 62
     0
 10
322.786787
 20
33.685276
 30
0.0
 11
322.786787
 21
32.883108
 31
0.0
  0
LINE
  5
293
  8
0
  6
BYBLOCK
 62
     0
 10
324.086787
 20
33.685276
 30
0.0
 11
324.086787
 21
32.883108
 31
0.0
  0
LINE
  5
294
  8
0
  6
BYBLOCK
 62
     0
 10
322.936787
 20
32.898108
 30
0.0
 11
323.936787
 21
32.898108
 31
0.0
  0
SOLID
  5
295
  8
0
  6
BYBLOCK
 62
     0
 10
322.936787
 20
32.923108
 30
0.0
 11
322.936787
 21
32.873108
 31
0.0
 12
322.786787
 22
32.898108
 32
0.0
 13
322.786787
 23
32.898108
 33
0.0
  0
SOLID
  5
296
  8
0
  6
BYBLOCK
 62
     0
 10
323.936787
 20
32.923108
 30
0.0
 11
323.936787
 21
32.873108
 31
0.0
 12
324.086787
 22
32.898108
 32
0.0
 13
324.086787
 23
32.898108
 33
0.0
  0
TEXT
  8
0
  40
0.075
  5
2F7
  62
0
  72
0
  71
0
 10
323.287
 20
32.8404
 30
0.000000
  1
1.30
  7
ROMANC
  0
POINT
  5
298
  8
DEFPOINTS
  6
BYBLOCK
 62
     0
 10
322.786787
 20
33.700276
 30
0.0
  0
POINT
  5
299
  8
DEFPOINTS
  6
BYBLOCK
 62
     0
 10
324.086787
 20
33.700276
 30
0.0
  0
POINT
  5
29A
  8
DEFPOINTS
  6
BYBLOCK
 62
     0
 10
324.086787
 20
32.898108
 30
0.0
  0
ENDBLK
  5
29B
  8
0
  0
BLOCK
  8
0
  2
*D15
 70
     1
 10
0.0
 20
0.0
 30
0.0
  3
*D15
  1

  0
LINE
  5
29F
  8
0
  6
BYBLOCK
 62
     0
 10
324.101787
 20
35.600276
 30
0.0
 11
324.844485
 21
35.600276
 31
0.0
  0
LINE
  5
2A0
  8
0
  6
BYBLOCK
 62
     0
 10
323.951787
 20
33.450276
 30
0.0
 11
324.844485
 21
33.450276
 31
0.0
  0
LINE
  5
2A1
  8
0
  6
BYBLOCK
 62
     0
 10
324.829485
 20
35.450276
 30
0.0
 11
324.829485
 21
33.600276
 31
0.0
  0
SOLID
  5
2A2
  8
0
  6
BYBLOCK
 62
     0
 10
324.804485
 20
35.450276
 30
0.0
 11
324.854485
 21
35.450276
 31
0.0
 12
324.829485
 22
35.600276
 32
0.0
 13
324.829485
 23
35.600276
 33
0.0
  0
SOLID
  5
2A3
  8
0
  6
BYBLOCK
 62
     0
 10
324.804485
 20
33.600276
 30
0.0
 11
324.854485
 21
33.600276
 31
0.0
 12
324.829485
 22
33.450276
 32
0.0
 13
324.829485
 23
33.450276
 33
0.0
  0
TEXT
  8
0
  40
0.075
  5
2F8
  62
0
  72
0
  71
0
 10
324.604
 20
34.3925
 30
0.000000
  1
2.15
  7
ROMANC
  0
POINT
  5
2A5
  8
DEFPOINTS
  6
BYBLOCK
 62
     0
 10
324.086787
 20
35.600276
 30
0.0
  0
POINT
  5
2A6
  8
DEFPOINTS
  6
BYBLOCK
 62
     0
 10
323.936787
 20
33.450276
 30
0.0
  0
POINT
  5
2A7
  8
DEFPOINTS
  6
BYBLOCK
 62
     0
 10
324.829485
 20
33.450276
 30
0.0
  0
ENDBLK
  5
2A8
  8
0
  0
ENDSEC
  0
SECTION
  2
ENTITIES
  0
LINE
  5
27
  8
0
 10
329.348696
 20
29.863623
 30
0.0
 11
329.348696
 21
44.713623
 31
0.0
  0
LINE
  5
28
  8
0
 10
318.848696
 20
44.713623
 30
0.0
 11
318.848696
 21
29.863623
 31
0.0
  0
LINE
  5
29
  8
0
 10
318.848696
 20
29.863623
 30
0.0
 11
329.348696
 21
29.863623
 31
0.0
  0
TEXT
  5
2A
  8
0
 10
321.378668
 20
42.309482
 30
0.0
 40
0.3
  1
TIPUS   NT276
  7
ROMANC
  0
TEXT
  5
2D
  8
0
 10
321.340746
 20
40.527599
 30
0.0
 40
0.3
  1
P = 66,8 dm
  7
ROMANC
  0
TEXT
  5
2E
  8
0
 10
321.391762
 20
41.225178
 30
0.0
 40
0.3
  1
S = 276 dm
  7
ROMANC
  0
TEXT
  5
2F
  8
0
 10
321.378668
 20
41.823768
 30
0.0
 40
0.3
  1
ESCALA  1:50
  7
ROMANC
  0
TEXT
  5
30
  8
0
 10
324.28569
 20
41.531094
 30
0.0
 40
0.1
  1
2
  7
ROMANC
  0
LINE
  5
31
  8
0
 10
329.348696
 20
44.713623
 30
0.0
 11
318.848696
 21
44.713623
 31
0.0
  0
LINE
  5
2B2
  8
0
 10
322.771787
 20
33.696121
 30
0.0
 11
322.928294
 21
33.435276
 31
0.0
  0
LINE
  5
2B3
  8
0
 10
322.928294
 20
33.435276
 30
0.0
 11
323.94528
 21
33.435276
 31
0.0
  0
LINE
  5
2B4
  8
0
 10
323.94528
 20
33.435276
 30
0.0
 11
324.101787
 21
33.696121
 31
0.0
  0
LINE
  5
2B5
  8
0
 10
324.101787
 20
33.696121
 30
0.0
 11
324.101787
 21
35.615276
 31
0.0
  0
LINE
  5
2B6
  8
0
 10
324.101787
 20
35.615276
 30
0.0
 11
322.771787
 21
35.615276
 31
0.0
  0
LINE
  5
2B7
  8
0
 10
322.771787
 20
35.615276
 30
0.0
 11
322.771787
 21
33.696121
 31
0.0
  0
LINE
  5
2B8
  8
0
 10
322.779287
 20
33.698199
 30
0.0
 11
322.93254
 21
33.442776
 31
0.0
  0
LINE
  5
2B9
  8
0
 10
322.93254
 20
33.442776
 30
0.0
 11
323.941033
 21
33.442776
 31
0.0
  0
LINE
  5
2BA
  8
0
 10
323.941033
 20
33.442776
 30
0.0
 11
324.094287
 21
33.698199
 31
0.0
  0
LINE
  5
2BB
  8
0
 10
324.094287
 20
33.698199
 30
0.0
 11
324.094287
 21
35.607776
 31
0.0
  0
LINE
  5
2BC
  8
0
 10
324.094287
 20
35.607776
 30
0.0
 11
322.779287
 21
35.607776
 31
0.0
  0
LINE
  5
2BD
  8
0
 10
322.779287
 20
35.607776
 30
0.0
 11
322.779287
 21
33.698199
 31
0.0
  0
LINE
  5
2BE
  8
0
  6
BYBLOCK
 62
     0
 10
324.101787
 20
35.600276
 30
0.0
 11
324.844485
 21
35.600276
 31
0.0
  0
LINE
  5
2BF
  8
0
  6
BYBLOCK
 62
     0
 10
323.951787
 20
33.450276
 30
0.0
 11
324.844485
 21
33.450276
 31
0.0
  0
LINE
  5
2C0
  8
0
  6
BYBLOCK
 62
     0
 10
324.829485
 20
35.450276
 30
0.0
 11
324.829485
 21
33.600276
 31
0.0
  0
SOLID
  5
2C1
  8
0
  6
BYBLOCK
 62
     0
 10
324.804485
 20
35.450276
 30
0.0
 11
324.854485
 21
35.450276
 31
0.0
 12
324.829485
 22
35.600276
 32
0.0
 13
324.829485
 23
35.600276
 33
0.0
  0
SOLID
  5
2C2
  8
0
  6
BYBLOCK
 62
     0
 10
324.804485
 20
33.600276
 30
0.0
 11
324.854485
 21
33.600276
 31
0.0
 12
324.829485
 22
33.450276
 32
0.0
 13
324.829485
 23
33.450276
 33
0.0
  0
TEXT
  8
0
  40
0.075
  5
2F9
  62
0
  72
0
  71
0
 10
324.604
 20
34.3925
 30
0.000000
  1
2.15
  7
ROMANC
  0
POINT
  5
2C4
  8
DEFPOINTS
  6
BYBLOCK
 62
     0
 10
324.086787
 20
35.600276
 30
0.0
  0
POINT
  5
2C5
  8
DEFPOINTS
  6
BYBLOCK
 62
     0
 10
323.936787
 20
33.450276
 30
0.0
  0
POINT
  5
2C6
  8
DEFPOINTS
  6
BYBLOCK
 62
     0
 10
324.829485
 20
33.450276
 30
0.0
  0
LINE
  5
2C7
  8
0
  6
BYBLOCK
 62
     0
 10
322.786787
 20
33.685276
 30
0.0
 11
322.786787
 21
32.883108
 31
0.0
  0
LINE
  5
2C8
  8
0
  6
BYBLOCK
 62
     0
 10
324.086787
 20
33.685276
 30
0.0
 11
324.086787
 21
32.883108
 31
0.0
  0
LINE
  5
2C9
  8
0
  6
BYBLOCK
 62
     0
 10
322.936787
 20
32.898108
 30
0.0
 11
323.936787
 21
32.898108
 31
0.0
  0
SOLID
  5
2CA
  8
0
  6
BYBLOCK
 62
     0
 10
322.936787
 20
32.923108
 30
0.0
 11
322.936787
 21
32.873108
 31
0.0
 12
322.786787
 22
32.898108
 32
0.0
 13
322.786787
 23
32.898108
 33
0.0
  0
SOLID
  5
2CB
  8
0
  6
BYBLOCK
 62
     0
 10
323.936787
 20
32.923108
 30
0.0
 11
323.936787
 21
32.873108
 31
0.0
 12
324.086787
 22
32.898108
 32
0.0
 13
324.086787
 23
32.898108
 33
0.0
  0
TEXT
  8
0
  40
0.075
  5
2FA
  62
0
  72
0
  71
0
 10
323.287
 20
32.8404
 30
0.000000
  1
1.30
  7
ROMANC
  0
POINT
  5
2CD
  8
DEFPOINTS
  6
BYBLOCK
 62
     0
 10
322.786787
 20
33.700276
 30
0.0
  0
POINT
  5
2CE
  8
DEFPOINTS
  6
BYBLOCK
 62
     0
 10
324.086787
 20
33.700276
 30
0.0
  0
POINT
  5
2CF
  8
DEFPOINTS
  6
BYBLOCK
 62
     0
 10
324.086787
 20
32.898108
 30
0.0
  0
LINE
  5
2D0
  8
0
  6
BYBLOCK
 62
     0
 10
324.101787
 20
33.700276
 30
0.0
 11
324.495184
 21
33.700276
 31
0.0
  0
LINE
  5
2D1
  8
0
  6
BYBLOCK
 62
     0
 10
323.951787
 20
33.450276
 30
0.0
 11
324.495184
 21
33.450276
 31
0.0
  0
LINE
  5
2D2
  8
0
  6
BYBLOCK
 62
     0
 10
324.480184
 20
33.850276
 30
0.0
 11
324.480184
 21
34.000276
 31
0.0
  0
LINE
  5
2D3
  8
0
  6
BYBLOCK
 62
     0
 10
324.480184
 20
33.300276
 30
0.0
 11
324.480184
 21
33.150276
 31
0.0
  0
LINE
  5
2D4
  8
0
  6
BYBLOCK
 62
     0
 10
324.480184
 20
33.700276
 30
0.0
 11
324.480184
 21
33.450276
 31
0.0
  0
SOLID
  5
2D5
  8
0
  6
BYBLOCK
 62
     0
 10
324.455184
 20
33.850276
 30
0.0
 11
324.505184
 21
33.850276
 31
0.0
 12
324.480184
 22
33.700276
 32
0.0
 13
324.480184
 23
33.700276
 33
0.0
  0
SOLID
  5
2D6
  8
0
  6
BYBLOCK
 62
     0
 10
324.455184
 20
33.300276
 30
0.0
 11
324.505184
 21
33.300276
 31
0.0
 12
324.480184
 22
33.450276
 32
0.0
 13
324.480184
 23
33.450276
 33
0.0
  0
TEXT
  8
0
  40
0.075
  5
2FB
  62
0
  72
0
  71
0
 10
324.255
 20
33.4425
 30
0.000000
  1
0.25
  7
ROMANC
  0
POINT
  5
2D8
  8
DEFPOINTS
  6
BYBLOCK
 62
     0
 10
324.086787
 20
33.700276
 30
0.0
  0
POINT
  5
2D9
  8
DEFPOINTS
  6
BYBLOCK
 62
     0
 10
323.936787
 20
33.450276
 30
0.0
  0
POINT
  5
2DA
  8
DEFPOINTS
  6
BYBLOCK
 62
     0
 10
324.480184
 20
33.450276
 30
0.0
  0
LINE
  5
2DB
  8
0
  6
BYBLOCK
 62
     0
 10
323.936787
 20
33.435276
 30
0.0
 11
323.936787
 21
33.194612
 31
0.0
  0
LINE
  5
2DC
  8
0
  6
BYBLOCK
 62
     0
 10
324.086787
 20
33.685276
 30
0.0
 11
324.086787
 21
33.194612
 31
0.0
  0
LINE
  5
2DD
  8
0
  6
BYBLOCK
 62
     0
 10
323.786787
 20
33.209612
 30
0.0
 11
323.636787
 21
33.209612
 31
0.0
  0
LINE
  5
2DE
  8
0
  6
BYBLOCK
 62
     0
 10
324.236787
 20
33.209612
 30
0.0
 11
324.386787
 21
33.209612
 31
0.0
  0
LINE
  5
2DF
  8
0
  6
BYBLOCK
 62
     0
 10
323.936787
 20
33.209612
 30
0.0
 11
324.086787
 21
33.209612
 31
0.0
  0
SOLID
  5
2E0
  8
0
  6
BYBLOCK
 62
     0
 10
323.786787
 20
33.234612
 30
0.0
 11
323.786787
 21
33.184612
 31
0.0
 12
323.936787
 22
33.209612
 32
0.0
 13
323.936787
 23
33.209612
 33
0.0
  0
SOLID
  5
2E1
  8
0
  6
BYBLOCK
 62
     0
 10
324.236787
 20
33.234612
 30
0.0
 11
324.236787
 21
33.184612
 31
0.0
 12
324.086787
 22
33.209612
 32
0.0
 13
324.086787
 23
33.209612
 33
0.0
  0
TEXT
  8
0
  40
0.075
  5
2FC
  62
0
  72
0
  71
0
 10
323.862
 20
33.1519
 30
0.000000
  1
0.15
  7
ROMANC
  0
POINT
  5
2E3
  8
DEFPOINTS
  6
BYBLOCK
 62
     0
 10
323.936787
 20
33.450276
 30
0.0
  0
POINT
  5
2E4
  8
DEFPOINTS
  6
BYBLOCK
 62
     0
 10
324.086787
 20
33.700276
 30
0.0
  0
POINT
  5
2E5
  8
DEFPOINTS
  6
BYBLOCK
 62
     0
 10
324.086787
 20
33.209612
 30
0.0
  0
LINE
  5
2E6
  8
0
 10
322.786787
 20
33.700276
 30
0.0
 11
322.936787
 21
33.450276
 31
0.0
  0
LINE
  5
2E7
  8
0
 10
322.936787
 20
33.450276
 30
0.0
 11
323.936787
 21
33.450276
 31
0.0
  0
LINE
  5
2E8
  8
0
 10
323.936787
 20
33.450276
 30
0.0
 11
324.086787
 21
33.700276
 31
0.0
  0
LINE
  5
2E9
  8
0
 10
324.086787
 20
33.700276
 30
0.0
 11
324.086787
 21
35.600276
 31
0.0
  0
LINE
  5
2EA
  8
0
 10
324.086787
 20
35.600276
 30
0.0
 11
322.786787
 21
35.600276
 31
0.0
  0
LINE
  5
2EB
  8
0
 10
322.786787
 20
35.600276
 30
0.0
 11
322.786787
 21
33.700276
 31
0.0
  0
ENDSEC
  0
EOF
