  0
SECTION
  2
HEADER
  9
$ACADVER
  1
AC1009
  9
$INSBASE
 10
0.0
 20
0.0
 30
0.0
  9
$EXTMIN
 10
180.642909
 20
80.934754
 30
0.0
  9
$EXTMAX
 10
191.142909
 20
95.784754
 30
0.0
  9
$LIMMIN
 10
280.396
 20
28.897
  9
$LIMMAX
 10
284.496
 20
31.867
  9
$ORTHOMODE
 70
     1
  9
$REGENMODE
 70
     1
  9
$FILLMODE
 70
     1
  9
$QTEXTMODE
 70
     0
  9
$MIRRTEXT
 70
     1
  9
$DRAGMODE
 70
     2
  9
$LTSCALE
 40
1.0
  9
$OSMODE
 70
     0
  9
$ATTMODE
 70
     1
  9
$TEXTSIZE
 40
3.5
  9
$TRACEWID
 40
0.05
  9
$TEXTSTYLE
  7
ROMANS
  9
$CLAYER
  8
0
  9
$CELTYPE
  6
BYLAYER
  9
$CECOLOR
 62
   256
  9
$DIMSCALE
 40
0.05
  9
$DIMASZ
 40
0.0
  9
$DIMEXO
 40
1.0
  9
$DIMDLI
 40
0.5
  9
$DIMRND
 40
0.0
  9
$DIMDLE
 40
0.0
  9
$DIMEXE
 40
0.5
  9
$DIMTP
 40
0.0
  9
$DIMTM
 40
0.0
  9
$DIMTXT
 40
2.0
  9
$DIMCEN
 40
1.0
  9
$DIMTSZ
 40
1.5
  9
$DIMTOL
 70
     0
  9
$DIMLIM
 70
     0
  9
$DIMTIH
 70
     0
  9
$DIMTOH
 70
     0
  9
$DIMSE1
 70
     0
  9
$DIMSE2
 70
     0
  9
$DIMTAD
 70
     0
  9
$DIMZIN
 70
     0
  9
$DIMBLK
  1

  9
$DIMASO
 70
     1
  9
$DIMSHO
 70
     1
  9
$DIMPOST
  1

  9
$DIMAPOST
  1

  9
$DIMALT
 70
     0
  9
$DIMALTD
 70
     2
  9
$DIMALTF
 40
25.4
  9
$DIMLFAC
 40
1.0
  9
$DIMTOFL
 70
     0
  9
$DIMTVP
 40
0.0
  9
$DIMTIX
 70
     0
  9
$DIMSOXD
 70
     0
  9
$DIMSAH
 70
     0
  9
$DIMBLK1
  1

  9
$DIMBLK2
  1

  9
$DIMSTYLE
  2
*UNNAMED
  9
$DIMCLRD
 70
     0
  9
$DIMCLRE
 70
     0
  9
$DIMCLRT
 70
     0
  9
$DIMTFAC
 40
1.0
  9
$DIMGAP
 40
0.05
  9
$LUNITS
 70
     2
  9
$LUPREC
 70
     2
  9
$SKETCHINC
 40
0.1
  9
$FILLETRAD
 40
0.0
  9
$AUNITS
 70
     0
  9
$AUPREC
 70
     0
  9
$MENU
  1
acad
  9
$ELEVATION
 40
0.0
  9
$PELEVATION
 40
0.0
  9
$THICKNESS
 40
0.0
  9
$LIMCHECK
 70
     0
  9
$BLIPMODE
 70
     1
  9
$CHAMFERA
 40
0.0
  9
$CHAMFERB
 40
0.0
  9
$SKPOLY
 70
     0
  9
$TDCREATE
 40
2448315.373408102
  9
$TDUPDATE
 40
2450927.464098727
  9
$TDINDWG
 40
0.0377180556
  9
$TDUSRTIMER
 40
0.0377180556
  9
$USRTIMER
 70
     1
  9
$ANGBASE
 50
0.0
  9
$ANGDIR
 70
     0
  9
$PDMODE
 70
     0
  9
$PDSIZE
 40
0.0
  9
$PLINEWID
 40
0.0
  9
$COORDS
 70
     0
  9
$SPLFRAME
 70
     0
  9
$SPLINETYPE
 70
     6
  9
$SPLINESEGS
 70
     8
  9
$ATTDIA
 70
     0
  9
$ATTREQ
 70
     1
  9
$HANDLING
 70
     0
  9
$HANDSEED
  5
0
  9
$SURFTAB1
 70
     6
  9
$SURFTAB2
 70
     6
  9
$SURFTYPE
 70
     6
  9
$SURFU
 70
     6
  9
$SURFV
 70
     6
  9
$UCSNAME
  2

  9
$UCSORG
 10
0.0
 20
0.0
 30
0.0
  9
$UCSXDIR
 10
1.0
 20
0.0
 30
0.0
  9
$UCSYDIR
 10
0.0
 20
1.0
 30
0.0
  9
$PUCSNAME
  2

  9
$PUCSORG
 10
0.0
 20
0.0
 30
0.0
  9
$PUCSXDIR
 10
1.0
 20
0.0
 30
0.0
  9
$PUCSYDIR
 10
0.0
 20
1.0
 30
0.0
  9
$USERI1
 70
     0
  9
$USERI2
 70
     0
  9
$USERI3
 70
     0
  9
$USERI4
 70
     0
  9
$USERI5
 70
     0
  9
$USERR1
 40
0.0
  9
$USERR2
 40
0.0
  9
$USERR3
 40
0.0
  9
$USERR4
 40
0.0
  9
$USERR5
 40
0.0
  9
$WORLDVIEW
 70
     1
  9
$SHADEDGE
 70
     3
  9
$SHADEDIF
 70
    70
  9
$TILEMODE
 70
     1
  9
$MAXACTVP
 70
    16
  9
$PINSBASE
 10
0.0
 20
0.0
 30
0.0
  9
$PLIMCHECK
 70
     0
  9
$PEXTMIN
 10
1.000000E+20
 20
1.000000E+20
 30
1.000000E+20
  9
$PEXTMAX
 10
-1.000000E+20
 20
-1.000000E+20
 30
-1.000000E+20
  9
$PLIMMIN
 10
0.0
 20
0.0
  9
$PLIMMAX
 10
12.0
 20
9.0
  9
$UNITMODE
 70
     0
  9
$VISRETAIN
 70
     0
  9
$PLINEGEN
 70
     0
  9
$PSLTSCALE
 70
     0
  9
$TREEDEPTH
 70
  3020
  9
$DWGCODEPAGE
  3
iso8859-1
  0
ENDSEC
  0
SECTION
  2
TABLES
  0
TABLE
  2
VPORT
 70
     2
  0
VPORT
  2
*ACTIVE
 70
     0
 10
0.0
 20
0.0
 11
1.0
 21
1.0
 12
191.962346
 22
88.359754
 13
0.0
 23
0.0
 14
1.0
 24
1.0
 15
10.0
 25
10.0
 16
0.0
 26
0.0
 36
1.0
 17
0.0
 27
0.0
 37
0.0
 40
14.85
 41
1.524503
 42
50.0
 43
0.0
 44
0.0
 50
0.0
 51
0.0
 71
     0
 72
   100
 73
     1
 74
     0
 75
     0
 76
     0
 77
     0
 78
     0
  0
ENDTAB
  0
TABLE
  2
LTYPE
 70
     1
  0
LTYPE
  2
CONTINUOUS
 70
    64
  3
Solid line
 72
    65
 73
     0
 40
0.0
  0
ENDTAB
  0
TABLE
  2
LAYER
 70
     9
  0
LAYER
  2
0
 70
    64
 62
     7
  6
CONTINUOUS
  0
LAYER
  2
1
 70
     0
 62
     7
  6
CONTINUOUS
  0
LAYER
  2
7
 70
     0
 62
     7
  6
CONTINUOUS
  0
LAYER
  2
8
 70
     0
 62
     7
  6
CONTINUOUS
  0
LAYER
  2
9
 70
     0
 62
     7
  6
CONTINUOUS
  0
LAYER
  2
22
 70
     0
 62
     7
  6
CONTINUOUS
  0
LAYER
  2
25
 70
     0
 62
     7
  6
CONTINUOUS
  0
LAYER
  2
DEFPOINTS
 70
    64
 62
     7
  6
CONTINUOUS
  0
LAYER
  2
MESURA
 70
     0
 62
     7
  6
CONTINUOUS
  0
ENDTAB
  0
TABLE
  2
STYLE
 70
     3
  0
STYLE
  2
STANDARD
 70
    64
 40
0.0
 41
1.0
 50
0.0
 71
     0
 42
3.5
  3
C:\APLIC\ACADWIN\FONTS\ROMANS.SHX
  4

  0
STYLE
  2
ROMANC
 70
    64
 40
0.0
 41
1.0
 50
0.0
 71
     0
 42
0.2
  3
ROMANC
  4

  0
STYLE
  2
ROMANS
 70
    64
 40
0.0
 41
1.0
 50
0.0
 71
     0
 42
3.5
  3
C:\APLIC\ACADWIN\FONTS\ROMANC.SHX
  4

  0
ENDTAB
  0
TABLE
  2
VIEW
 70
     0
  0
ENDTAB
  0
TABLE
  2
UCS
 70
     0
  0
ENDTAB
  0
TABLE
  2
APPID
 70
     1
  0
APPID
  2
ACAD
 70
    64
  0
ENDTAB
  0
TABLE
  2
DIMSTYLE
 70
     0
  0
ENDTAB
  0
ENDSEC
  0
SECTION
  2
BLOCKS
  0
BLOCK
  8
0
  2
*D12
 70
    65
 10
0.0
 20
0.0
 30
0.0
  3
*D
  0
LINE
  8
0
  6
BYBLOCK
 62
     0
 10
188.613222
 20
86.961306
 30
0.0
 11
188.613222
 21
86.986306
 31
0.0
  0
LINE
  8
0
  6
BYBLOCK
 62
     0
 10
189.913222
 20
87.061306
 30
0.0
 11
189.913222
 21
87.036306
 31
0.0
  0
LINE
  8
0
  6
BYBLOCK
 62
     0
 10
188.613222
 20
87.011306
 30
0.0
 11
189.115484
 21
87.011306
 31
0.0
  0
LINE
  8
0
  6
BYBLOCK
 62
     0
 10
189.913222
 20
87.011306
 30
0.0
 11
189.41096
 21
87.011306
 31
0.0
  0
LINE
  8
0
  6
BYBLOCK
 62
     0
 10
188.538222
 20
86.936306
 30
0.0
 11
188.688222
 21
87.086306
 31
0.0
  0
LINE
  8
0
  6
BYBLOCK
 62
     0
 10
189.838222
 20
86.936306
 30
0.0
 11
189.988222
 21
87.086306
 31
0.0
  0
TEXT
  8
0
  6
BYBLOCK
 62
     0
 10
189.089412
 20
86.961306
 30
0.0
 40
0.1
  1
1.30
  7
ROMANS
 72
     1
 11
189.263222
 21
87.011306
 31
0.0
 73
     2
  0
POINT
  8
DEFPOINTS
  6
BYBLOCK
 62
     0
 10
188.613222
 20
87.011306
 30
0.0
  0
POINT
  8
DEFPOINTS
  6
BYBLOCK
 62
     0
 10
189.913222
 20
87.011306
 30
0.0
  0
POINT
  8
DEFPOINTS
  6
BYBLOCK
 62
     0
 10
189.913222
 20
87.011306
 30
0.0
  0
ENDBLK
  8
0
  0
BLOCK
  8
0
  2
*D13
 70
    65
 10
0.0
 20
0.0
 30
0.0
  3
*D
  0
LINE
  8
0
  6
BYBLOCK
 62
     0
 10
188.613222
 20
85.461306
 30
0.0
 11
188.613222
 21
84.414225
 31
0.0
  0
LINE
  8
0
  6
BYBLOCK
 62
     0
 10
189.913222
 20
85.461306
 30
0.0
 11
189.913222
 21
84.414225
 31
0.0
  0
LINE
  8
0
  6
BYBLOCK
 62
     0
 10
188.613222
 20
84.439225
 30
0.0
 11
189.115484
 21
84.439225
 31
0.0
  0
LINE
  8
0
  6
BYBLOCK
 62
     0
 10
189.913222
 20
84.439225
 30
0.0
 11
189.41096
 21
84.439225
 31
0.0
  0
LINE
  8
0
  6
BYBLOCK
 62
     0
 10
188.538222
 20
84.364225
 30
0.0
 11
188.688222
 21
84.514225
 31
0.0
  0
LINE
  8
0
  6
BYBLOCK
 62
     0
 10
189.838222
 20
84.364225
 30
0.0
 11
189.988222
 21
84.514225
 31
0.0
  0
TEXT
  8
0
  6
BYBLOCK
 62
     0
 10
189.089412
 20
84.389225
 30
0.0
 40
0.1
  1
1.30
  7
ROMANS
 72
     1
 11
189.263222
 21
84.439225
 31
0.0
 73
     2
  0
POINT
  8
DEFPOINTS
  6
BYBLOCK
 62
     0
 10
188.613222
 20
85.511306
 30
0.0
  0
POINT
  8
DEFPOINTS
  6
BYBLOCK
 62
     0
 10
189.913222
 20
85.511306
 30
0.0
  0
POINT
  8
DEFPOINTS
  6
BYBLOCK
 62
     0
 10
189.913222
 20
84.439225
 30
0.0
  0
ENDBLK
  8
0
  0
BLOCK
  8
0
  2
*D14
 70
    65
 10
0.0
 20
0.0
 30
0.0
  3
*D
  0
LINE
  8
0
  6
BYBLOCK
 62
     0
 10
188.913222
 20
85.461306
 30
0.0
 11
188.913222
 21
84.726437
 31
0.0
  0
LINE
  8
0
  6
BYBLOCK
 62
     0
 10
189.613222
 20
85.461306
 30
0.0
 11
189.613222
 21
84.726437
 31
0.0
  0
LINE
  8
0
  6
BYBLOCK
 62
     0
 10
188.913222
 20
84.751437
 30
0.0
 11
189.108341
 21
84.751437
 31
0.0
  0
LINE
  8
0
  6
BYBLOCK
 62
     0
 10
189.613222
 20
84.751437
 30
0.0
 11
189.418103
 21
84.751437
 31
0.0
  0
LINE
  8
0
  6
BYBLOCK
 62
     0
 10
188.838222
 20
84.676437
 30
0.0
 11
188.988222
 21
84.826437
 31
0.0
  0
LINE
  8
0
  6
BYBLOCK
 62
     0
 10
189.538222
 20
84.676437
 30
0.0
 11
189.688222
 21
84.826437
 31
0.0
  0
TEXT
  8
0
  6
BYBLOCK
 62
     0
 10
189.096555
 20
84.701437
 30
0.0
 40
0.1
  1
0.70
  7
ROMANS
 72
     1
 11
189.263222
 21
84.751437
 31
0.0
 73
     2
  0
POINT
  8
DEFPOINTS
  6
BYBLOCK
 62
     0
 10
188.913222
 20
85.511306
 30
0.0
  0
POINT
  8
DEFPOINTS
  6
BYBLOCK
 62
     0
 10
189.613222
 20
85.511306
 30
0.0
  0
POINT
  8
DEFPOINTS
  6
BYBLOCK
 62
     0
 10
189.613222
 20
84.751437
 30
0.0
  0
ENDBLK
  8
0
  0
BLOCK
  8
0
  2
*D17
 70
    65
 10
0.0
 20
0.0
 30
0.0
  3
*D
  0
LINE
  8
0
  6
BYBLOCK
 62
     0
 10
188.613222
 20
85.461306
 30
0.0
 11
188.613222
 21
84.726437
 31
0.0
  0
LINE
  8
0
  6
BYBLOCK
 62
     0
 10
188.913222
 20
85.461306
 30
0.0
 11
188.913222
 21
84.726437
 31
0.0
  0
LINE
  8
0
  6
BYBLOCK
 62
     0
 10
188.613222
 20
84.751437
 30
0.0
 11
188.913222
 21
84.751437
 31
0.0
  0
LINE
  8
0
  6
BYBLOCK
 62
     0
 10
188.538222
 20
84.676437
 30
0.0
 11
188.688222
 21
84.826437
 31
0.0
  0
LINE
  8
0
  6
BYBLOCK
 62
     0
 10
188.838222
 20
84.676437
 30
0.0
 11
188.988222
 21
84.826437
 31
0.0
  0
TEXT
  8
0
  6
BYBLOCK
 62
     0
 10
188.186212
 20
84.701437
 30
0.0
 40
0.1
  1
0.30
  7
ROMANS
 72
     1
 11
188.352879
 21
84.751437
 31
0.0
 73
     2
  0
POINT
  8
DEFPOINTS
  6
BYBLOCK
 62
     0
 10
188.613222
 20
85.511306
 30
0.0
  0
POINT
  8
DEFPOINTS
  6
BYBLOCK
 62
     0
 10
188.913222
 20
85.511306
 30
0.0
  0
POINT
  8
DEFPOINTS
  6
BYBLOCK
 62
     0
 10
188.913222
 20
84.751437
 30
0.0
  0
ENDBLK
  8
0
  0
BLOCK
  8
0
  2
*D19
 70
    65
 10
0.0
 20
0.0
 30
0.0
  3
*D
  0
LINE
  8
0
  6
BYBLOCK
 62
     0
 10
189.613222
 20
85.461306
 30
0.0
 11
189.613222
 21
84.726437
 31
0.0
  0
LINE
  8
0
  6
BYBLOCK
 62
     0
 10
189.913222
 20
85.461306
 30
0.0
 11
189.913222
 21
84.726437
 31
0.0
  0
LINE
  8
0
  6
BYBLOCK
 62
     0
 10
189.613222
 20
84.751437
 30
0.0
 11
189.913222
 21
84.751437
 31
0.0
  0
LINE
  8
0
  6
BYBLOCK
 62
     0
 10
189.538222
 20
84.676437
 30
0.0
 11
189.688222
 21
84.826437
 31
0.0
  0
LINE
  8
0
  6
BYBLOCK
 62
     0
 10
189.838222
 20
84.676437
 30
0.0
 11
189.988222
 21
84.826437
 31
0.0
  0
TEXT
  8
0
  6
BYBLOCK
 62
     0
 10
189.988875
 20
84.701437
 30
0.0
 40
0.1
  1
0.30
  7
ROMANS
 72
     1
 11
190.155541
 21
84.751437
 31
0.0
 73
     2
  0
POINT
  8
DEFPOINTS
  6
BYBLOCK
 62
     0
 10
189.613222
 20
85.511306
 30
0.0
  0
POINT
  8
DEFPOINTS
  6
BYBLOCK
 62
     0
 10
189.913222
 20
85.511306
 30
0.0
  0
POINT
  8
DEFPOINTS
  6
BYBLOCK
 62
     0
 10
189.913222
 20
84.751437
 30
0.0
  0
ENDBLK
  8
0
  0
BLOCK
  8
0
  2
*D20
 70
    65
 10
0.0
 20
0.0
 30
0.0
  3
*D
  0
LINE
  8
0
  6
BYBLOCK
 62
     0
 10
189.663222
 20
85.511306
 30
0.0
 11
190.369625
 21
85.511306
 31
0.0
  0
LINE
  8
0
  6
BYBLOCK
 62
     0
 10
189.313222
 20
85.011306
 30
0.0
 11
190.369625
 21
85.011306
 31
0.0
  0
LINE
  8
0
  6
BYBLOCK
 62
     0
 10
190.344625
 20
85.511306
 30
0.0
 11
190.344625
 21
85.416187
 31
0.0
  0
LINE
  8
0
  6
BYBLOCK
 62
     0
 10
190.344625
 20
85.011306
 30
0.0
 11
190.344625
 21
85.106425
 31
0.0
  0
LINE
  8
0
  6
BYBLOCK
 62
     0
 10
190.419625
 20
85.436306
 30
0.0
 11
190.269625
 21
85.586306
 31
0.0
  0
LINE
  8
0
  6
BYBLOCK
 62
     0
 10
190.419625
 20
84.936306
 30
0.0
 11
190.269625
 21
85.086306
 31
0.0
  0
TEXT
  8
0
  6
BYBLOCK
 62
     0
 10
190.394625
 20
85.094639
 30
0.0
 40
0.1
  1
0.50
 50
90.0
  7
ROMANS
 72
     1
 11
190.344625
 21
85.261306
 31
0.0
 73
     2
  0
POINT
  8
DEFPOINTS
  6
BYBLOCK
 62
     0
 10
189.613222
 20
85.511306
 30
0.0
  0
POINT
  8
DEFPOINTS
  6
BYBLOCK
 62
     0
 10
189.263222
 20
85.011306
 30
0.0
  0
POINT
  8
DEFPOINTS
  6
BYBLOCK
 62
     0
 10
190.344625
 20
85.011306
 30
0.0
  0
ENDBLK
  8
0
  0
BLOCK
  8
0
  2
*D21
 70
    65
 10
0.0
 20
0.0
 30
0.0
  3
*D
  0
LINE
  8
0
  6
BYBLOCK
 62
     0
 10
189.963222
 20
85.511306
 30
0.0
 11
190.369625
 21
85.511306
 31
0.0
  0
LINE
  8
0
  6
BYBLOCK
 62
     0
 10
189.963222
 20
87.011306
 30
0.0
 11
190.369625
 21
87.011306
 31
0.0
  0
LINE
  8
0
  6
BYBLOCK
 62
     0
 10
190.344625
 20
85.511306
 30
0.0
 11
190.344625
 21
86.113568
 31
0.0
  0
LINE
  8
0
  6
BYBLOCK
 62
     0
 10
190.344625
 20
87.011306
 30
0.0
 11
190.344625
 21
86.409044
 31
0.0
  0
LINE
  8
0
  6
BYBLOCK
 62
     0
 10
190.419625
 20
85.436306
 30
0.0
 11
190.269625
 21
85.586306
 31
0.0
  0
LINE
  8
0
  6
BYBLOCK
 62
     0
 10
190.419625
 20
86.936306
 30
0.0
 11
190.269625
 21
87.086306
 31
0.0
  0
TEXT
  8
0
  6
BYBLOCK
 62
     0
 10
190.394625
 20
86.087496
 30
0.0
 40
0.1
  1
1.50
 50
90.0
  7
ROMANS
 72
     1
 11
190.344625
 21
86.261306
 31
0.0
 73
     2
  0
POINT
  8
DEFPOINTS
  6
BYBLOCK
 62
     0
 10
189.913222
 20
85.511306
 30
0.0
  0
POINT
  8
DEFPOINTS
  6
BYBLOCK
 62
     0
 10
189.913222
 20
87.011306
 30
0.0
  0
POINT
  8
DEFPOINTS
  6
BYBLOCK
 62
     0
 10
190.344625
 20
87.011306
 30
0.0
  0
ENDBLK
  8
0
  0
BLOCK
  8
0
  2
*D23
 70
    65
 10
0.0
 20
0.0
 30
0.0
  3
*D
  0
LINE
  8
0
  6
BYBLOCK
 62
     0
 10
189.963222
 20
87.011306
 30
0.0
 11
190.369625
 21
87.011306
 31
0.0
  0
LINE
  8
0
  6
BYBLOCK
 62
     0
 10
189.313222
 20
87.661306
 30
0.0
 11
190.369625
 21
87.661306
 31
0.0
  0
LINE
  8
0
  6
BYBLOCK
 62
     0
 10
190.344625
 20
87.011306
 30
0.0
 11
190.344625
 21
87.181425
 31
0.0
  0
LINE
  8
0
  6
BYBLOCK
 62
     0
 10
190.344625
 20
87.661306
 30
0.0
 11
190.344625
 21
87.491187
 31
0.0
  0
LINE
  8
0
  6
BYBLOCK
 62
     0
 10
190.419625
 20
86.936306
 30
0.0
 11
190.269625
 21
87.086306
 31
0.0
  0
LINE
  8
0
  6
BYBLOCK
 62
     0
 10
190.419625
 20
87.586306
 30
0.0
 11
190.269625
 21
87.736306
 31
0.0
  0
TEXT
  8
0
  6
BYBLOCK
 62
     0
 10
190.394625
 20
87.169639
 30
0.0
 40
0.1
  1
0.65
 50
90.0
  7
ROMANS
 72
     1
 11
190.344625
 21
87.336306
 31
0.0
 73
     2
  0
POINT
  8
DEFPOINTS
  6
BYBLOCK
 62
     0
 10
189.913222
 20
87.011306
 30
0.0
  0
POINT
  8
DEFPOINTS
  6
BYBLOCK
 62
     0
 10
189.263222
 20
87.661306
 30
0.0
  0
POINT
  8
DEFPOINTS
  6
BYBLOCK
 62
     0
 10
190.344625
 20
87.661306
 30
0.0
  0
ENDBLK
  8
0
  0
BLOCK
  8
0
  2
*D24
 70
    65
 10
0.0
 20
0.0
 30
0.0
  3
*D
  0
LINE
  8
0
  6
BYBLOCK
 62
     0
 10
189.313222
 20
87.661306
 30
0.0
 11
190.711724
 21
87.661306
 31
0.0
  0
LINE
  8
0
  6
BYBLOCK
 62
     0
 10
189.313222
 20
85.011306
 30
0.0
 11
190.711724
 21
85.011306
 31
0.0
  0
LINE
  8
0
  6
BYBLOCK
 62
     0
 10
190.686724
 20
87.661306
 30
0.0
 11
190.686724
 21
86.491187
 31
0.0
  0
LINE
  8
0
  6
BYBLOCK
 62
     0
 10
190.686724
 20
85.011306
 30
0.0
 11
190.686724
 21
86.181425
 31
0.0
  0
LINE
  8
0
  6
BYBLOCK
 62
     0
 10
190.761724
 20
87.586306
 30
0.0
 11
190.611724
 21
87.736306
 31
0.0
  0
LINE
  8
0
  6
BYBLOCK
 62
     0
 10
190.761724
 20
84.936306
 30
0.0
 11
190.611724
 21
85.086306
 31
0.0
  0
TEXT
  8
0
  6
BYBLOCK
 62
     0
 10
190.736724
 20
86.169639
 30
0.0
 40
0.1
  1
2.65
 50
90.0
  7
ROMANS
 72
     1
 11
190.686724
 21
86.336306
 31
0.0
 73
     2
  0
POINT
  8
DEFPOINTS
  6
BYBLOCK
 62
     0
 10
189.263222
 20
87.661306
 30
0.0
  0
POINT
  8
DEFPOINTS
  6
BYBLOCK
 62
     0
 10
189.263222
 20
85.011306
 30
0.0
  0
POINT
  8
DEFPOINTS
  6
BYBLOCK
 62
     0
 10
190.686724
 20
85.011306
 30
0.0
  0
ENDBLK
  8
0
  0
BLOCK
  8
0
  2
*D25
 70
    65
 10
0.0
 20
0.0
 30
0.0
  3
*D
  0
LINE
  8
0
  6
BYBLOCK
 62
     0
 10
184.836891
 20
88.037693
 30
0.0
 11
186.235393
 21
88.037693
 31
0.0
  0
LINE
  8
0
  6
BYBLOCK
 62
     0
 10
184.836891
 20
85.537693
 30
0.0
 11
186.235393
 21
85.537693
 31
0.0
  0
LINE
  8
0
  6
BYBLOCK
 62
     0
 10
186.210393
 20
88.037693
 30
0.0
 11
186.210393
 21
86.942574
 31
0.0
  0
LINE
  8
0
  6
BYBLOCK
 62
     0
 10
186.210393
 20
85.537693
 30
0.0
 11
186.210393
 21
86.632812
 31
0.0
  0
LINE
  8
0
  6
BYBLOCK
 62
     0
 10
186.285393
 20
87.962693
 30
0.0
 11
186.135393
 21
88.112693
 31
0.0
  0
LINE
  8
0
  6
BYBLOCK
 62
     0
 10
186.285393
 20
85.462693
 30
0.0
 11
186.135393
 21
85.612693
 31
0.0
  0
TEXT
  8
0
  6
BYBLOCK
 62
     0
 10
186.260393
 20
86.621027
 30
0.0
 40
0.1
  1
2.50
 50
90.0
  7
ROMANS
 72
     1
 11
186.210393
 21
86.787693
 31
0.0
 73
     2
  0
POINT
  8
DEFPOINTS
  6
BYBLOCK
 62
     0
 10
184.786891
 20
88.037693
 30
0.0
  0
POINT
  8
DEFPOINTS
  6
BYBLOCK
 62
     0
 10
184.786891
 20
85.537693
 30
0.0
  0
POINT
  8
DEFPOINTS
  6
BYBLOCK
 62
     0
 10
186.210393
 20
85.537693
 30
0.0
  0
ENDBLK
  8
0
  0
BLOCK
  8
0
  2
*D26
 70
    65
 10
0.0
 20
0.0
 30
0.0
  3
*D
  0
LINE
  8
0
  6
BYBLOCK
 62
     0
 10
185.486891
 20
86.037693
 30
0.0
 11
185.893294
 21
86.037693
 31
0.0
  0
LINE
  8
0
  6
BYBLOCK
 62
     0
 10
185.486891
 20
87.387693
 30
0.0
 11
185.893294
 21
87.387693
 31
0.0
  0
LINE
  8
0
  6
BYBLOCK
 62
     0
 10
185.868294
 20
86.037693
 30
0.0
 11
185.868294
 21
86.564955
 31
0.0
  0
LINE
  8
0
  6
BYBLOCK
 62
     0
 10
185.868294
 20
87.387693
 30
0.0
 11
185.868294
 21
86.860431
 31
0.0
  0
LINE
  8
0
  6
BYBLOCK
 62
     0
 10
185.943294
 20
85.962693
 30
0.0
 11
185.793294
 21
86.112693
 31
0.0
  0
LINE
  8
0
  6
BYBLOCK
 62
     0
 10
185.943294
 20
87.312693
 30
0.0
 11
185.793294
 21
87.462693
 31
0.0
  0
TEXT
  8
0
  6
BYBLOCK
 62
     0
 10
185.918294
 20
86.538884
 30
0.0
 40
0.1
  1
1.35
 50
90.0
  7
ROMANS
 72
     1
 11
185.868294
 21
86.712693
 31
0.0
 73
     2
  0
POINT
  8
DEFPOINTS
  6
BYBLOCK
 62
     0
 10
185.436891
 20
86.037693
 30
0.0
  0
POINT
  8
DEFPOINTS
  6
BYBLOCK
 62
     0
 10
185.436891
 20
87.387693
 30
0.0
  0
POINT
  8
DEFPOINTS
  6
BYBLOCK
 62
     0
 10
185.868294
 20
87.387693
 30
0.0
  0
ENDBLK
  8
0
  0
ENDSEC
  0
SECTION
  2
ENTITIES
  0
LINE
  8
0
 10
180.642909
 20
95.784754
 30
0.0
 11
180.642909
 21
80.934754
 31
0.0
  0
LINE
  8
0
 10
191.142909
 20
80.934754
 30
0.0
 11
191.142909
 21
95.784754
 31
0.0
  0
LINE
  8
0
 10
180.642909
 20
80.934754
 30
0.0
 11
191.142909
 21
80.934754
 31
0.0
  0
LINE
  8
0
 10
191.142909
 20
95.784754
 30
0.0
 11
180.642909
 21
95.784754
 31
0.0
  0
TEXT
  8
0
 10
183.172881
 20
92.894898
 30
0.0
 40
0.3
  1
ESCALA  1:50
  7
ROMANC
  0
TEXT
  8
0
 10
183.185975
 20
92.296309
 30
0.0
 40
0.3
  1
S = 269 dm
  7
ROMANC
  0
TEXT
  8
0
 10
183.172881
 20
93.380613
 30
0.0
 40
0.3
  1
TIPUS   NT269
  7
ROMANC
  0
TEXT
  8
0
 10
183.179398
 20
91.743273
 30
0.0
 40
0.3
  1
P = 66.9 dm
  7
ROMANC
  0
TEXT
  8
0
 10
186.57508
 20
92.60962
 30
0.0
 40
0.1
  1
2
  7
ROMANC
  0
ARC
  8
0
 10
184.786891
 20
85.786865
 30
0.0
 40
0.264172
 50
270.0
 51
300.614231
  0
ARC
  8
0
 10
184.786891
 20
85.786865
 30
0.0
 40
0.264172
 50
239.385769
 51
270.0
  0
ARC
  8
0
 10
184.858123
 20
85.907243
 30
0.0
 40
0.404046
 50
214.99202
 51
239.385769
  0
ARC
  8
0
 10
184.970769
 20
85.986096
 30
0.0
 40
0.541549
 50
196.16949
 51
214.99202
  0
ARC
  8
0
 10
185.148722
 20
86.037693
 30
0.0
 40
0.726831
 50
181.182527
 51
196.16949
  0
LINE
  8
0
 10
184.422046
 20
86.022693
 30
0.0
 11
184.121891
 21
86.022693
 31
0.0
  0
LINE
  8
0
 10
184.121891
 20
86.022693
 30
0.0
 11
184.121891
 21
87.387693
 31
0.0
  0
ARC
  8
0
 10
184.786891
 20
87.387693
 30
0.0
 40
0.665
 50
157.5
 51
180.0
  0
ARC
  8
0
 10
184.786891
 20
87.387693
 30
0.0
 40
0.665
 50
135.0
 51
157.5
  0
ARC
  8
0
 10
184.786891
 20
87.387693
 30
0.0
 40
0.665
 50
112.5
 51
135.0
  0
ARC
  8
0
 10
184.786891
 20
87.387693
 30
0.0
 40
0.665
 50
90.0
 51
112.5
  0
ARC
  8
0
 10
184.786891
 20
87.387693
 30
0.0
 40
0.665
 50
67.5
 51
90.0
  0
ARC
  8
0
 10
184.786891
 20
87.387693
 30
0.0
 40
0.665
 50
45.0
 51
67.5
  0
ARC
  8
0
 10
184.786891
 20
87.387693
 30
0.0
 40
0.665
 50
22.5
 51
45.0
  0
ARC
  8
0
 10
184.786891
 20
87.387693
 30
0.0
 40
0.665
 50
0.0
 51
22.5
  0
LINE
  8
0
 10
185.451891
 20
87.387693
 30
0.0
 11
185.451891
 21
86.022693
 31
0.0
  0
LINE
  8
0
 10
185.451891
 20
86.022693
 30
0.0
 11
185.151736
 21
86.022693
 31
0.0
  0
ARC
  8
0
 10
184.42506
 20
86.037693
 30
0.0
 40
0.726831
 50
343.83051
 51
358.817473
  0
ARC
  8
0
 10
184.603013
 20
85.986096
 30
0.0
 40
0.541549
 50
325.00798
 51
343.83051
  0
ARC
  8
0
 10
184.715659
 20
85.907243
 30
0.0
 40
0.404046
 50
300.614231
 51
325.00798
  0
ARC
  8
0
 10
184.786891
 20
85.786865
 30
0.0
 40
0.256672
 50
270.0
 51
300.614231
  0
ARC
  8
0
 10
184.786891
 20
85.786865
 30
0.0
 40
0.256672
 50
239.385769
 51
270.0
  0
ARC
  8
0
 10
184.858123
 20
85.907243
 30
0.0
 40
0.396546
 50
214.99202
 51
239.385769
  0
ARC
  8
0
 10
184.970769
 20
85.986096
 30
0.0
 40
0.534049
 50
196.16949
 51
214.99202
  0
ARC
  8
0
 10
185.148722
 20
86.037693
 30
0.0
 40
0.719331
 50
180.597397
 51
196.16949
  0
LINE
  8
0
 10
184.42943
 20
86.030193
 30
0.0
 11
184.129391
 21
86.030193
 31
0.0
  0
LINE
  8
0
 10
184.129391
 20
86.030193
 30
0.0
 11
184.129391
 21
87.387693
 31
0.0
  0
ARC
  8
0
 10
184.786891
 20
87.387693
 30
0.0
 40
0.6575
 50
157.5
 51
180.0
  0
ARC
  8
0
 10
184.786891
 20
87.387693
 30
0.0
 40
0.6575
 50
135.0
 51
157.5
  0
ARC
  8
0
 10
184.786891
 20
87.387693
 30
0.0
 40
0.6575
 50
112.5
 51
135.0
  0
ARC
  8
0
 10
184.786891
 20
87.387693
 30
0.0
 40
0.6575
 50
90.0
 51
112.5
  0
ARC
  8
0
 10
184.786891
 20
87.387693
 30
0.0
 40
0.6575
 50
67.5
 51
90.0
  0
ARC
  8
0
 10
184.786891
 20
87.387693
 30
0.0
 40
0.6575
 50
45.0
 51
67.5
  0
ARC
  8
0
 10
184.786891
 20
87.387693
 30
0.0
 40
0.6575
 50
22.5
 51
45.0
  0
ARC
  8
0
 10
184.786891
 20
87.387693
 30
0.0
 40
0.6575
 50
360.0
 51
22.5
  0
LINE
  8
0
 10
185.444391
 20
87.387693
 30
0.0
 11
185.444391
 21
86.030193
 31
0.0
  0
LINE
  8
0
 10
185.444391
 20
86.030193
 30
0.0
 11
185.144352
 21
86.030193
 31
0.0
  0
ARC
  8
0
 10
184.42506
 20
86.037693
 30
0.0
 40
0.719331
 50
343.83051
 51
359.402603
  0
ARC
  8
0
 10
184.603013
 20
85.986096
 30
0.0
 40
0.534049
 50
325.00798
 51
343.83051
  0
ARC
  8
0
 10
184.715659
 20
85.907243
 30
0.0
 40
0.396546
 50
300.614231
 51
325.00798
  0
LINE
  8
0
  6
BYBLOCK
 62
     0
 10
184.836891
 20
88.037693
 30
0.0
 11
186.235393
 21
88.037693
 31
0.0
  0
LINE
  8
0
  6
BYBLOCK
 62
     0
 10
184.836891
 20
85.537693
 30
0.0
 11
186.235393
 21
85.537693
 31
0.0
  0
LINE
  8
0
  6
BYBLOCK
 62
     0
 10
186.210393
 20
88.037693
 30
0.0
 11
186.210393
 21
86.942574
 31
0.0
  0
LINE
  8
0
  6
BYBLOCK
 62
     0
 10
186.210393
 20
85.537693
 30
0.0
 11
186.210393
 21
86.632812
 31
0.0
  0
LINE
  8
0
  6
BYBLOCK
 62
     0
 10
186.285393
 20
87.962693
 30
0.0
 11
186.135393
 21
88.112693
 31
0.0
  0
LINE
  8
0
  6
BYBLOCK
 62
     0
 10
186.285393
 20
85.462693
 30
0.0
 11
186.135393
 21
85.612693
 31
0.0
  0
TEXT
  8
0
  6
BYBLOCK
 62
     0
 10
186.260393
 20
86.621027
 30
0.0
 40
0.1
  1
2.50
 50
90.0
  7
ROMANS
 72
     1
 11
186.210393
 21
86.787693
 31
0.0
 73
     2
  0
POINT
  8
DEFPOINTS
  6
BYBLOCK
 62
     0
 10
184.786891
 20
88.037693
 30
0.0
  0
POINT
  8
DEFPOINTS
  6
BYBLOCK
 62
     0
 10
184.786891
 20
85.537693
 30
0.0
  0
POINT
  8
DEFPOINTS
  6
BYBLOCK
 62
     0
 10
186.210393
 20
85.537693
 30
0.0
  0
LINE
  8
0
  6
BYBLOCK
 62
     0
 10
185.486891
 20
87.387693
 30
0.0
 11
185.893294
 21
87.387693
 31
0.0
  0
LINE
  8
0
  6
BYBLOCK
 62
     0
 10
184.836891
 20
88.037693
 30
0.0
 11
185.893294
 21
88.037693
 31
0.0
  0
LINE
  8
0
  6
BYBLOCK
 62
     0
 10
185.868294
 20
87.387693
 30
0.0
 11
185.868294
 21
87.557812
 31
0.0
  0
LINE
  8
0
  6
BYBLOCK
 62
     0
 10
185.868294
 20
88.037693
 30
0.0
 11
185.868294
 21
87.867574
 31
0.0
  0
LINE
  8
0
  6
BYBLOCK
 62
     0
 10
185.943294
 20
87.312693
 30
0.0
 11
185.793294
 21
87.462693
 31
0.0
  0
LINE
  8
0
  6
BYBLOCK
 62
     0
 10
185.943294
 20
87.962693
 30
0.0
 11
185.793294
 21
88.112693
 31
0.0
  0
TEXT
  8
0
  6
BYBLOCK
 62
     0
 10
185.918294
 20
87.546027
 30
0.0
 40
0.1
  1
0.65
 50
90.0
  7
ROMANS
 72
     1
 11
185.868294
 21
87.712693
 31
0.0
 73
     2
  0
POINT
  8
DEFPOINTS
  6
BYBLOCK
 62
     0
 10
185.436891
 20
87.387693
 30
0.0
  0
POINT
  8
DEFPOINTS
  6
BYBLOCK
 62
     0
 10
184.786891
 20
88.037693
 30
0.0
  0
POINT
  8
DEFPOINTS
  6
BYBLOCK
 62
     0
 10
185.868294
 20
88.037693
 30
0.0
  0
ARC
  8
0
 10
184.786891
 20
85.786865
 30
0.0
 40
0.249172
 50
270.0
 51
300.614231
  0
ARC
  8
0
 10
184.786891
 20
85.786865
 30
0.0
 40
0.249172
 50
239.385769
 51
270.0
  0
ARC
  8
0
 10
184.858123
 20
85.907243
 30
0.0
 40
0.389046
 50
214.99202
 51
239.385769
  0
ARC
  8
0
 10
184.970769
 20
85.986096
 30
0.0
 40
0.526549
 50
196.16949
 51
214.99202
  0
ARC
  8
0
 10
185.148722
 20
86.037693
 30
0.0
 40
0.711831
 50
180.0
 51
196.16949
  0
LINE
  8
0
 10
184.436891
 20
86.037693
 30
0.0
 11
184.136891
 21
86.037693
 31
0.0
  0
LINE
  8
0
 10
184.136891
 20
86.037693
 30
0.0
 11
184.136891
 21
87.387693
 31
0.0
  0
ARC
  8
0
 10
184.786891
 20
87.387693
 30
0.0
 40
0.65
 50
157.5
 51
180.0
  0
ARC
  8
0
 10
184.786891
 20
87.387693
 30
0.0
 40
0.65
 50
135.0
 51
157.5
  0
ARC
  8
0
 10
184.786891
 20
87.387693
 30
0.0
 40
0.65
 50
112.5
 51
135.0
  0
ARC
  8
0
 10
184.786891
 20
87.387693
 30
0.0
 40
0.65
 50
90.0
 51
112.5
  0
ARC
  8
0
 10
184.786891
 20
87.387693
 30
0.0
 40
0.65
 50
67.5
 51
90.0
  0
ARC
  8
0
 10
184.786891
 20
87.387693
 30
0.0
 40
0.65
 50
45.0
 51
67.5
  0
ARC
  8
0
 10
184.786891
 20
87.387693
 30
0.0
 40
0.65
 50
22.5
 51
45.0
  0
ARC
  8
0
 10
184.786891
 20
87.387693
 30
0.0
 40
0.65
 50
0.0
 51
22.5
  0
LINE
  8
0
 10
185.436891
 20
87.387693
 30
0.0
 11
185.436891
 21
86.037693
 31
0.0
  0
LINE
  8
0
 10
185.436891
 20
86.037693
 30
0.0
 11
185.136891
 21
86.037693
 31
0.0
  0
ARC
  8
0
 10
184.42506
 20
86.037693
 30
0.0
 40
0.711831
 50
343.83051
 51
0.0
  0
ARC
  8
0
 10
184.603013
 20
85.986096
 30
0.0
 40
0.526549
 50
325.00798
 51
343.83051
  0
ARC
  8
0
 10
184.715659
 20
85.907243
 30
0.0
 40
0.389046
 50
300.614231
 51
325.00798
  0
LINE
  8
0
  6
BYBLOCK
 62
     0
 10
185.486891
 20
86.037693
 30
0.0
 11
185.893294
 21
86.037693
 31
0.0
  0
LINE
  8
0
  6
BYBLOCK
 62
     0
 10
185.486891
 20
87.387693
 30
0.0
 11
185.893294
 21
87.387693
 31
0.0
  0
LINE
  8
0
  6
BYBLOCK
 62
     0
 10
185.868294
 20
86.037693
 30
0.0
 11
185.868294
 21
86.564955
 31
0.0
  0
LINE
  8
0
  6
BYBLOCK
 62
     0
 10
185.868294
 20
87.387693
 30
0.0
 11
185.868294
 21
86.860431
 31
0.0
  0
LINE
  8
0
  6
BYBLOCK
 62
     0
 10
185.943294
 20
85.962693
 30
0.0
 11
185.793294
 21
86.112693
 31
0.0
  0
LINE
  8
0
  6
BYBLOCK
 62
     0
 10
185.943294
 20
87.312693
 30
0.0
 11
185.793294
 21
87.462693
 31
0.0
  0
TEXT
  8
0
  6
BYBLOCK
 62
     0
 10
185.918294
 20
86.538884
 30
0.0
 40
0.1
  1
1.35
 50
90.0
  7
ROMANS
 72
     1
 11
185.868294
 21
86.712693
 31
0.0
 73
     2
  0
POINT
  8
DEFPOINTS
  6
BYBLOCK
 62
     0
 10
185.436891
 20
86.037693
 30
0.0
  0
POINT
  8
DEFPOINTS
  6
BYBLOCK
 62
     0
 10
185.436891
 20
87.387693
 30
0.0
  0
POINT
  8
DEFPOINTS
  6
BYBLOCK
 62
     0
 10
185.868294
 20
87.387693
 30
0.0
  0
LINE
  8
0
  6
BYBLOCK
 62
     0
 10
185.186891
 20
86.037693
 30
0.0
 11
185.893294
 21
86.037693
 31
0.0
  0
LINE
  8
0
  6
BYBLOCK
 62
     0
 10
184.836891
 20
85.537693
 30
0.0
 11
185.893294
 21
85.537693
 31
0.0
  0
LINE
  8
0
  6
BYBLOCK
 62
     0
 10
185.868294
 20
86.037693
 30
0.0
 11
185.868294
 21
85.942574
 31
0.0
  0
LINE
  8
0
  6
BYBLOCK
 62
     0
 10
185.868294
 20
85.537693
 30
0.0
 11
185.868294
 21
85.632812
 31
0.0
  0
LINE
  8
0
  6
BYBLOCK
 62
     0
 10
185.943294
 20
85.962693
 30
0.0
 11
185.793294
 21
86.112693
 31
0.0
  0
LINE
  8
0
  6
BYBLOCK
 62
     0
 10
185.943294
 20
85.462693
 30
0.0
 11
185.793294
 21
85.612693
 31
0.0
  0
TEXT
  8
0
  6
BYBLOCK
 62
     0
 10
185.918294
 20
85.621027
 30
0.0
 40
0.1
  1
0.50
 50
90.0
  7
ROMANS
 72
     1
 11
185.868294
 21
85.787693
 31
0.0
 73
     2
  0
POINT
  8
DEFPOINTS
  6
BYBLOCK
 62
     0
 10
185.136891
 20
86.037693
 30
0.0
  0
POINT
  8
DEFPOINTS
  6
BYBLOCK
 62
     0
 10
184.786891
 20
85.537693
 30
0.0
  0
POINT
  8
DEFPOINTS
  6
BYBLOCK
 62
     0
 10
185.868294
 20
85.537693
 30
0.0
  0
LINE
  8
0
  6
BYBLOCK
 62
     0
 10
185.136891
 20
85.987693
 30
0.0
 11
185.136891
 21
85.252825
 31
0.0
  0
LINE
  8
0
  6
BYBLOCK
 62
     0
 10
185.436891
 20
85.987693
 30
0.0
 11
185.436891
 21
85.252825
 31
0.0
  0
LINE
  8
0
  6
BYBLOCK
 62
     0
 10
185.136891
 20
85.277825
 30
0.0
 11
185.436891
 21
85.277825
 31
0.0
  0
LINE
  8
0
  6
BYBLOCK
 62
     0
 10
185.061891
 20
85.202825
 30
0.0
 11
185.211891
 21
85.352825
 31
0.0
  0
LINE
  8
0
  6
BYBLOCK
 62
     0
 10
185.361891
 20
85.202825
 30
0.0
 11
185.511891
 21
85.352825
 31
0.0
  0
TEXT
  8
0
  6
BYBLOCK
 62
     0
 10
185.512544
 20
85.227825
 30
0.0
 40
0.1
  1
0.30
  7
ROMANS
 72
     1
 11
185.679211
 21
85.277825
 31
0.0
 73
     2
  0
POINT
  8
DEFPOINTS
  6
BYBLOCK
 62
     0
 10
185.136891
 20
86.037693
 30
0.0
  0
POINT
  8
DEFPOINTS
  6
BYBLOCK
 62
     0
 10
185.436891
 20
86.037693
 30
0.0
  0
POINT
  8
DEFPOINTS
  6
BYBLOCK
 62
     0
 10
185.436891
 20
85.277825
 30
0.0
  0
LINE
  8
0
  6
BYBLOCK
 62
     0
 10
184.136891
 20
85.987693
 30
0.0
 11
184.136891
 21
85.252825
 31
0.0
  0
LINE
  8
0
  6
BYBLOCK
 62
     0
 10
184.436891
 20
85.987693
 30
0.0
 11
184.436891
 21
85.252825
 31
0.0
  0
LINE
  8
0
  6
BYBLOCK
 62
     0
 10
184.136891
 20
85.277825
 30
0.0
 11
184.436891
 21
85.277825
 31
0.0
  0
LINE
  8
0
  6
BYBLOCK
 62
     0
 10
184.061891
 20
85.202825
 30
0.0
 11
184.211891
 21
85.352825
 31
0.0
  0
LINE
  8
0
  6
BYBLOCK
 62
     0
 10
184.361891
 20
85.202825
 30
0.0
 11
184.511891
 21
85.352825
 31
0.0
  0
TEXT
  8
0
  6
BYBLOCK
 62
     0
 10
183.709881
 20
85.227825
 30
0.0
 40
0.1
  1
0.30
  7
ROMANS
 72
     1
 11
183.876548
 21
85.277825
 31
0.0
 73
     2
  0
POINT
  8
DEFPOINTS
  6
BYBLOCK
 62
     0
 10
184.136891
 20
86.037693
 30
0.0
  0
POINT
  8
DEFPOINTS
  6
BYBLOCK
 62
     0
 10
184.436891
 20
86.037693
 30
0.0
  0
POINT
  8
DEFPOINTS
  6
BYBLOCK
 62
     0
 10
184.436891
 20
85.277825
 30
0.0
  0
LINE
  8
0
  6
BYBLOCK
 62
     0
 10
184.436891
 20
85.987693
 30
0.0
 11
184.436891
 21
85.252825
 31
0.0
  0
LINE
  8
0
  6
BYBLOCK
 62
     0
 10
185.136891
 20
85.987693
 30
0.0
 11
185.136891
 21
85.252825
 31
0.0
  0
LINE
  8
0
  6
BYBLOCK
 62
     0
 10
184.436891
 20
85.277825
 30
0.0
 11
184.63201
 21
85.277825
 31
0.0
  0
LINE
  8
0
  6
BYBLOCK
 62
     0
 10
185.136891
 20
85.277825
 30
0.0
 11
184.941772
 21
85.277825
 31
0.0
  0
LINE
  8
0
  6
BYBLOCK
 62
     0
 10
184.361891
 20
85.202825
 30
0.0
 11
184.511891
 21
85.352825
 31
0.0
  0
LINE
  8
0
  6
BYBLOCK
 62
     0
 10
185.061891
 20
85.202825
 30
0.0
 11
185.211891
 21
85.352825
 31
0.0
  0
TEXT
  8
0
  6
BYBLOCK
 62
     0
 10
184.620224
 20
85.227825
 30
0.0
 40
0.1
  1
0.70
  7
ROMANS
 72
     1
 11
184.786891
 21
85.277825
 31
0.0
 73
     2
  0
POINT
  8
DEFPOINTS
  6
BYBLOCK
 62
     0
 10
184.436891
 20
86.037693
 30
0.0
  0
POINT
  8
DEFPOINTS
  6
BYBLOCK
 62
     0
 10
185.136891
 20
86.037693
 30
0.0
  0
POINT
  8
DEFPOINTS
  6
BYBLOCK
 62
     0
 10
185.136891
 20
85.277825
 30
0.0
  0
LINE
  8
0
  6
BYBLOCK
 62
     0
 10
184.136891
 20
85.987693
 30
0.0
 11
184.136891
 21
84.940612
 31
0.0
  0
LINE
  8
0
  6
BYBLOCK
 62
     0
 10
185.436891
 20
85.987693
 30
0.0
 11
185.436891
 21
84.940612
 31
0.0
  0
LINE
  8
0
  6
BYBLOCK
 62
     0
 10
184.136891
 20
84.965612
 30
0.0
 11
184.639153
 21
84.965612
 31
0.0
  0
LINE
  8
0
  6
BYBLOCK
 62
     0
 10
185.436891
 20
84.965612
 30
0.0
 11
184.934629
 21
84.965612
 31
0.0
  0
LINE
  8
0
  6
BYBLOCK
 62
     0
 10
184.061891
 20
84.890612
 30
0.0
 11
184.211891
 21
85.040612
 31
0.0
  0
LINE
  8
0
  6
BYBLOCK
 62
     0
 10
185.361891
 20
84.890612
 30
0.0
 11
185.511891
 21
85.040612
 31
0.0
  0
TEXT
  8
0
  6
BYBLOCK
 62
     0
 10
184.613082
 20
84.915612
 30
0.0
 40
0.1
  1
1.30
  7
ROMANS
 72
     1
 11
184.786891
 21
84.965612
 31
0.0
 73
     2
  0
POINT
  8
DEFPOINTS
  6
BYBLOCK
 62
     0
 10
184.136891
 20
86.037693
 30
0.0
  0
POINT
  8
DEFPOINTS
  6
BYBLOCK
 62
     0
 10
185.436891
 20
86.037693
 30
0.0
  0
POINT
  8
DEFPOINTS
  6
BYBLOCK
 62
     0
 10
185.436891
 20
84.965612
 30
0.0
  0
LINE
  8
0
  6
BYBLOCK
 62
     0
 10
184.136891
 20
87.337693
 30
0.0
 11
184.136891
 21
87.362693
 31
0.0
  0
LINE
  8
0
  6
BYBLOCK
 62
     0
 10
185.436891
 20
87.437693
 30
0.0
 11
185.436891
 21
87.412693
 31
0.0
  0
LINE
  8
0
  6
BYBLOCK
 62
     0
 10
184.136891
 20
87.387693
 30
0.0
 11
184.639153
 21
87.387693
 31
0.0
  0
LINE
  8
0
  6
BYBLOCK
 62
     0
 10
185.436891
 20
87.387693
 30
0.0
 11
184.934629
 21
87.387693
 31
0.0
  0
LINE
  8
0
  6
BYBLOCK
 62
     0
 10
184.061891
 20
87.312693
 30
0.0
 11
184.211891
 21
87.462693
 31
0.0
  0
LINE
  8
0
  6
BYBLOCK
 62
     0
 10
185.361891
 20
87.312693
 30
0.0
 11
185.511891
 21
87.462693
 31
0.0
  0
TEXT
  8
0
  6
BYBLOCK
 62
     0
 10
184.613082
 20
87.337693
 30
0.0
 40
0.1
  1
1.30
  7
ROMANS
 72
     1
 11
184.786891
 21
87.387693
 31
0.0
 73
     2
  0
POINT
  8
DEFPOINTS
  6
BYBLOCK
 62
     0
 10
184.136891
 20
87.387693
 30
0.0
  0
POINT
  8
DEFPOINTS
  6
BYBLOCK
 62
     0
 10
185.436891
 20
87.387693
 30
0.0
  0
POINT
  8
DEFPOINTS
  6
BYBLOCK
 62
     0
 10
185.436891
 20
87.387693
 30
0.0
  0
ENDSEC
  0
EOF
