  0
SECTION
  2
HEADER
  9
$ACADVER
  1
AC1009
  9
$INSBASE
 10
205.722516
 20
13.650243
 30
0.0
  9
$EXTMIN
 10
22.591444
 20
-21.448265
 30
0.0
  9
$EXTMAX
 10
228.671302
 20
98.615031
 30
0.0
  9
$LIMMIN
 10
0.0
 20
0.0
  9
$LIMMAX
 10
410.0
 20
287.0
  9
$ORTHOMODE
 70
     0
  9
$REGENMODE
 70
     1
  9
$FILLMODE
 70
     1
  9
$QTEXTMODE
 70
     0
  9
$MIRRTEXT
 70
     1
  9
$DRAGMODE
 70
     2
  9
$LTSCALE
 40
25.0
  9
$OSMODE
 70
    32
  9
$ATTMODE
 70
     1
  9
$TEXTSIZE
 40
0.1
  9
$TRACEWID
 40
1.0
  9
$TEXTSTYLE
  7
ROMANC
  9
$CLAYER
  8
0
  9
$CELTYPE
  6
BYLAYER
  9
$CECOLOR
 62
   256
  9
$DIMSCALE
 40
0.0
  9
$DIMASZ
 40
0.0
  9
$DIMEXO
 40
0.1
  9
$DIMDLI
 40
7.0
  9
$DIMRND
 40
0.0
  9
$DIMDLE
 40
0.0
  9
$DIMEXE
 40
1.8
  9
$DIMTP
 40
0.0
  9
$DIMTM
 40
0.0
  9
$DIMTXT
 40
0.03
  9
$DIMCEN
 40
1.5
  9
$DIMTSZ
 40
1.0
  9
$DIMTOL
 70
     0
  9
$DIMLIM
 70
     0
  9
$DIMTIH
 70
     0
  9
$DIMTOH
 70
     0
  9
$DIMSE1
 70
     0
  9
$DIMSE2
 70
     0
  9
$DIMTAD
 70
     0
  9
$DIMZIN
 70
     0
  9
$DIMBLK
  1

  9
$DIMASO
 70
     1
  9
$DIMSHO
 70
     0
  9
$DIMPOST
  1

  9
$DIMAPOST
  1

  9
$DIMALT
 70
     0
  9
$DIMALTD
 70
     2
  9
$DIMALTF
 40
25.4
  9
$DIMLFAC
 40
1.0
  9
$DIMTOFL
 70
     1
  9
$DIMTVP
 40
0.0
  9
$DIMTIX
 70
     1
  9
$DIMSOXD
 70
     0
  9
$DIMSAH
 70
     0
  9
$DIMBLK1
  1

  9
$DIMBLK2
  1

  9
$DIMSTYLE
  2
*UNNAMED
  9
$DIMCLRD
 70
     0
  9
$DIMCLRE
 70
     0
  9
$DIMCLRT
 70
     0
  9
$DIMTFAC
 40
116.666667
  9
$DIMGAP
 40
0.09
  9
$LUNITS
 70
     2
  9
$LUPREC
 70
     2
  9
$SKETCHINC
 40
1.0
  9
$FILLETRAD
 40
0.0
  9
$AUNITS
 70
     0
  9
$AUPREC
 70
     0
  9
$MENU
  1
acad
  9
$ELEVATION
 40
0.0
  9
$PELEVATION
 40
0.0
  9
$THICKNESS
 40
0.0
  9
$LIMCHECK
 70
     0
  9
$BLIPMODE
 70
     0
  9
$CHAMFERA
 40
0.0
  9
$CHAMFERB
 40
0.0
  9
$SKPOLY
 70
     0
  9
$TDCREATE
 40
2449967.520162847
  9
$TDUPDATE
 40
2449967.520162847
  9
$TDINDWG
 40
0.0000000000
  9
$TDUSRTIMER
 40
0.0000000000
  9
$USRTIMER
 70
     1
  9
$ANGBASE
 50
0.0
  9
$ANGDIR
 70
     0
  9
$PDMODE
 70
     0
  9
$PDSIZE
 40
0.0
  9
$PLINEWID
 40
0.0
  9
$COORDS
 70
     2
  9
$SPLFRAME
 70
     0
  9
$SPLINETYPE
 70
     6
  9
$SPLINESEGS
 70
     8
  9
$ATTDIA
 70
     0
  9
$ATTREQ
 70
     1
  9
$HANDLING
 70
     0
  9
$HANDSEED
  5
0
  9
$SURFTAB1
 70
     6
  9
$SURFTAB2
 70
     6
  9
$SURFTYPE
 70
     6
  9
$SURFU
 70
     6
  9
$SURFV
 70
     6
  9
$UCSNAME
  2

  9
$UCSORG
 10
0.0
 20
0.0
 30
0.0
  9
$UCSXDIR
 10
1.0
 20
0.0
 30
0.0
  9
$UCSYDIR
 10
0.0
 20
1.0
 30
0.0
  9
$PUCSNAME
  2

  9
$PUCSORG
 10
0.0
 20
0.0
 30
0.0
  9
$PUCSXDIR
 10
1.0
 20
0.0
 30
0.0
  9
$PUCSYDIR
 10
0.0
 20
1.0
 30
0.0
  9
$USERI1
 70
     0
  9
$USERI2
 70
     0
  9
$USERI3
 70
     0
  9
$USERI4
 70
     0
  9
$USERI5
 70
     0
  9
$USERR1
 40
0.0
  9
$USERR2
 40
0.0
  9
$USERR3
 40
0.0
  9
$USERR4
 40
0.0
  9
$USERR5
 40
0.0
  9
$WORLDVIEW
 70
     1
  9
$SHADEDGE
 70
     3
  9
$SHADEDIF
 70
    70
  9
$TILEMODE
 70
     1
  9
$MAXACTVP
 70
    16
  9
$PINSBASE
 10
0.0
 20
0.0
 30
0.0
  9
$PLIMCHECK
 70
     0
  9
$PEXTMIN
 10
1.000000E+20
 20
1.000000E+20
 30
1.000000E+20
  9
$PEXTMAX
 10
-1.000000E+20
 20
-1.000000E+20
 30
-1.000000E+20
  9
$PLIMMIN
 10
0.0
 20
0.0
  9
$PLIMMAX
 10
12.0
 20
9.0
  9
$UNITMODE
 70
     0
  9
$VISRETAIN
 70
     0
  9
$PLINEGEN
 70
     0
  9
$PSLTSCALE
 70
     0
  9
$TREEDEPTH
 70
  3020
  9
$DWGCODEPAGE
  3
iso8859-1
  0
ENDSEC
  0
SECTION
  2
TABLES
  0
TABLE
  2
VPORT
 70
     1
  0
VPORT
  2
*ACTIVE
 70
     0
 10
0.0
 20
0.0
 11
1.0
 21
1.0
 12
222.895601
 22
18.830309
 13
0.0
 23
0.0
 14
1.0
 24
1.0
 15
10.0
 25
10.0
 16
0.0
 26
0.0
 36
1.0
 17
0.0
 27
0.0
 37
0.0
 40
26.537788
 41
1.639742
 42
50.0
 43
0.0
 44
0.0
 50
0.0
 51
0.0
 71
     0
 72
   100
 73
     1
 74
     0
 75
     0
 76
     0
 77
     0
 78
     2
  0
ENDTAB
  0
TABLE
  2
LTYPE
 70
     1
  0
LTYPE
  2
CONTINUOUS
 70
    64
  3
Solid line
 72
    65
 73
     0
 40
0.0
  0
ENDTAB
  0
TABLE
  2
LAYER
 70
     2
  0
LAYER
  2
0
 70
    64
 62
     7
  6
CONTINUOUS
  0
LAYER
  2
MESURA
 70
    64
 62
     7
  6
CONTINUOUS
  0
ENDTAB
  0
TABLE
  2
STYLE
 70
     2
  0
STYLE
  2
STANDARD
 70
     0
 40
0.0
 41
1.0
 50
0.0
 71
     0
 42
0.1
  3
txt
  4

  0
STYLE
  2
ROMANC
 70
    64
 40
0.0
 41
1.0
 50
0.0
 71
     0
 42
0.1
  3
romanc
  4

  0
ENDTAB
  0
TABLE
  2
VIEW
 70
     0
  0
ENDTAB
  0
TABLE
  2
UCS
 70
     0
  0
ENDTAB
  0
TABLE
  2
APPID
 70
     1
  0
APPID
  2
ACAD
 70
    64
  0
ENDTAB
  0
TABLE
  2
DIMSTYLE
 70
     0
  0
ENDTAB
  0
ENDSEC
  0
SECTION
  2
BLOCKS
  0
ENDSEC
  0
SECTION
  2
ENTITIES
  0
TEXT
  8
0
 10
208.268997
 20
24.292875
 30
0.0
 40
0.3
  1
P = 64.4 dm
  7
ROMANC
  0
LINE
  8
0
 10
216.222516
 20
13.650243
 30
0.0
 11
216.222516
 21
28.500243
 31
0.0
  0
LINE
  8
0
 10
205.722516
 20
28.500243
 30
0.0
 11
205.722516
 21
13.650243
 31
0.0
  0
LINE
  8
0
 10
205.722516
 20
13.650243
 30
0.0
 11
216.222516
 21
13.650243
 31
0.0
  0
POLYLINE
  8
0
 66
     1
 10
0.0
 20
0.0
 30
0.0
 70
     1
  0
VERTEX
  8
0
 10
210.51362
 20
17.496504
 30
0.0
 42
0.115074
  0
VERTEX
  8
0
 10
210.529787
 20
17.447188
 30
0.0
 42
0.107019
  0
VERTEX
  8
0
 10
210.581984
 20
17.392176
 30
0.0
 42
0.080969
 70
     2
 50
325.713123
  0
VERTEX
  8
0
 10
210.65307
 20
17.358985
 30
0.0
 42
0.068921
 50
325.713123
  0
VERTEX
  8
0
 10
210.743181
 20
17.346504
 30
0.0
 42
0.068921
  0
VERTEX
  8
0
 10
210.833292
 20
17.358985
 30
0.0
 42
0.080969
  0
VERTEX
  8
0
 10
210.904378
 20
17.392176
 30
0.0
 42
0.107019
 70
     2
 50
34.286877
  0
VERTEX
  8
0
 10
210.956575
 20
17.447188
 30
0.0
 42
0.115074
 50
34.286877
  0
VERTEX
  8
0
 10
210.972743
 20
17.496504
 30
0.0
  0
VERTEX
  8
0
 10
211.302198
 20
17.496504
 30
0.0
  0
VERTEX
  8
0
 10
211.443181
 20
18.855986
 30
0.0
 42
0.078786
  0
VERTEX
  8
0
 10
211.387974
 20
19.205207
 30
0.0
 42
0.087958
  0
VERTEX
  8
0
 10
211.238954
 20
19.484929
 30
0.0
 42
0.105343
 70
     2
 50
128.099672
  0
VERTEX
  8
0
 10
211.002891
 20
19.682122
 30
0.0
 42
0.122104
 50
128.099672
  0
VERTEX
  8
0
 10
210.743181
 20
19.746504
 30
0.0
 42
0.122104
  0
VERTEX
  8
0
 10
210.483472
 20
19.682122
 30
0.0
 42
0.105343
  0
VERTEX
  8
0
 10
210.247408
 20
19.484929
 30
0.0
 42
0.087958
 70
     2
 50
231.900328
  0
VERTEX
  8
0
 10
210.098388
 20
19.205207
 30
0.0
 42
0.078786
 50
231.900328
  0
VERTEX
  8
0
 10
210.043181
 20
18.855986
 30
0.0
  0
VERTEX
  8
0
 10
210.184165
 20
17.496504
 30
0.0
  0
SEQEND
  8
0
  0
POLYLINE
  8
0
 66
     1
 10
0.0
 20
0.0
 30
0.0
 70
     1
  0
VERTEX
  8
0
 10
210.533713
 20
17.516504
 30
0.0
 42
0.164519
  0
VERTEX
  8
0
 10
210.54688
 20
17.457572
 30
0.0
 42
0.107019
  0
VERTEX
  8
0
 10
210.593251
 20
17.408701
 30
0.0
 42
0.080969
 70
     2
 50
325.713123
  0
VERTEX
  8
0
 10
210.658506
 20
17.378232
 30
0.0
 42
0.068921
 50
325.713123
  0
VERTEX
  8
0
 10
210.743181
 20
17.366504
 30
0.0
 42
0.068921
  0
VERTEX
  8
0
 10
210.827856
 20
17.378232
 30
0.0
 42
0.080969
  0
VERTEX
  8
0
 10
210.893111
 20
17.408701
 30
0.0
 42
0.107019
 70
     2
 50
34.286877
  0
VERTEX
  8
0
 10
210.939483
 20
17.457572
 30
0.0
 42
0.164519
 50
34.286877
  0
VERTEX
  8
0
 10
210.952649
 20
17.516504
 30
0.0
  0
VERTEX
  8
0
 10
211.284165
 20
17.516504
 30
0.0
  0
VERTEX
  8
0
 10
211.423181
 20
18.85702
 30
0.0
 42
0.078553
  0
VERTEX
  8
0
 10
211.368952
 20
19.199029
 30
0.0
 42
0.087958
  0
VERTEX
  8
0
 10
211.223215
 20
19.472588
 30
0.0
 42
0.105343
 70
     2
 50
128.099672
  0
VERTEX
  8
0
 10
210.993549
 20
19.664437
 30
0.0
 42
0.122104
 50
128.099672
  0
VERTEX
  8
0
 10
210.743181
 20
19.726504
 30
0.0
 42
0.122104
  0
VERTEX
  8
0
 10
210.492814
 20
19.664437
 30
0.0
 42
0.105343
  0
VERTEX
  8
0
 10
210.263147
 20
19.472588
 30
0.0
 42
0.087958
 70
     2
 50
231.900328
  0
VERTEX
  8
0
 10
210.11741
 20
19.199029
 30
0.0
 42
0.078553
 50
231.900328
  0
VERTEX
  8
0
 10
210.063181
 20
18.85702
 30
0.0
  0
VERTEX
  8
0
 10
210.202198
 20
17.516504
 30
0.0
  0
SEQEND
  8
0
  0
POLYLINE
  8
0
 66
     1
 10
0.0
 20
0.0
 30
0.0
 70
     1
  0
VERTEX
  8
0
 10
210.523181
 20
17.506504
 30
0.0
 42
0.137335
  0
VERTEX
  8
0
 10
210.538333
 20
17.45238
 30
0.0
 42
0.107019
  0
VERTEX
  8
0
 10
210.587618
 20
17.400438
 30
0.0
 42
0.080969
 70
     2
 50
325.713123
  0
VERTEX
  8
0
 10
210.655788
 20
17.368608
 30
0.0
 42
0.068921
 50
325.713123
  0
VERTEX
  8
0
 10
210.743181
 20
17.356504
 30
0.0
 42
0.068921
  0
VERTEX
  8
0
 10
210.830574
 20
17.368608
 30
0.0
 42
0.080969
  0
VERTEX
  8
0
 10
210.898745
 20
17.400438
 30
0.0
 42
0.107019
 70
     2
 50
34.286877
  0
VERTEX
  8
0
 10
210.948029
 20
17.45238
 30
0.0
 42
0.137335
 50
34.286877
  0
VERTEX
  8
0
 10
210.963181
 20
17.506504
 30
0.0
  0
VERTEX
  8
0
 10
211.293181
 20
17.506504
 30
0.0
  0
VERTEX
  8
0
 10
211.433181
 20
18.856504
 30
0.0
 42
0.07867
  0
VERTEX
  8
0
 10
211.378463
 20
19.202118
 30
0.0
 42
0.087958
  0
VERTEX
  8
0
 10
211.231085
 20
19.478758
 30
0.0
 42
0.105343
 70
     2
 50
128.099672
  0
VERTEX
  8
0
 10
210.99822
 20
19.67328
 30
0.0
 42
0.122104
 50
128.099672
  0
VERTEX
  8
0
 10
210.743181
 20
19.736504
 30
0.0
 42
0.122104
  0
VERTEX
  8
0
 10
210.488143
 20
19.67328
 30
0.0
 42
0.105343
  0
VERTEX
  8
0
 10
210.255277
 20
19.478758
 30
0.0
 42
0.087958
 70
     2
 50
231.900328
  0
VERTEX
  8
0
 10
210.107899
 20
19.202118
 30
0.0
 42
0.07867
 50
231.900328
  0
VERTEX
  8
0
 10
210.053181
 20
18.856504
 30
0.0
  0
VERTEX
  8
0
 10
210.193181
 20
17.506504
 30
0.0
  0
SEQEND
  8
0
  0
LINE
  8
0
 10
212.320404
 20
19.736504
 30
0.0
 11
212.320404
 21
17.356504
 31
0.0
  0
LINE
  8
0
 10
211.690403
 20
18.856504
 30
0.0
 11
211.690403
 21
17.356504
 31
0.0
  0
TEXT
  8
0
 10
211.857366
 20
17.393627
 30
0.0
 40
0.1
  1
0.15
  7
ROMANC
  0
TEXT
  8
0
 10
210.64144
 20
17.069591
 30
0.0
 40
0.1
  1
0.44
  7
ROMANC
  0
TEXT
  8
0
 10
210.6067
 20
16.444664
 30
0.0
 40
0.1
  1
1.10
  7
ROMANC
  0
TEXT
  8
0
 10
211.822626
 20
18.134281
 30
0.0
 40
0.1
  1
1.35
  7
ROMANC
  0
LINE
  8
MESURA
  6
BYBLOCK
 62
     0
 10
210.423181
 20
17.116582
 30
0.0
 11
210.623181
 21
17.316582
 31
0.0
  0
LINE
  8
MESURA
  6
BYBLOCK
 62
     0
 10
210.863181
 20
17.116582
 30
0.0
 11
211.063181
 21
17.316582
 31
0.0
  0
LINE
  8
MESURA
  6
BYBLOCK
 62
     0
 10
211.590403
 20
17.406504
 30
0.0
 11
211.790403
 21
17.606504
 31
0.0
  0
LINE
  8
MESURA
  6
BYBLOCK
 62
     0
 10
211.590403
 20
17.256504
 30
0.0
 11
211.790403
 21
17.456504
 31
0.0
  0
LINE
  8
MESURA
  6
BYBLOCK
 62
     0
 10
211.193181
 20
16.556946
 30
0.0
 11
211.393181
 21
16.756946
 31
0.0
  0
LINE
  8
MESURA
  6
BYBLOCK
 62
     0
 10
210.093181
 20
16.556946
 30
0.0
 11
210.293181
 21
16.756946
 31
0.0
  0
LINE
  8
MESURA
  6
BYBLOCK
 62
     0
 10
212.220404
 20
17.256504
 30
0.0
 11
212.420404
 21
17.456504
 31
0.0
  0
LINE
  8
0
 10
210.193181
 20
17.506504
 30
0.0
 11
210.193181
 21
16.656946
 31
0.0
  0
LINE
  8
0
 10
210.743181
 20
17.356504
 30
0.0
 11
212.320404
 21
17.356504
 31
0.0
  0
LINE
  8
0
 10
211.293181
 20
17.506504
 30
0.0
 11
211.690403
 21
17.506504
 31
0.0
  0
LINE
  8
0
 10
210.193181
 20
16.656946
 30
0.0
 11
211.293181
 21
16.656946
 31
0.0
  0
LINE
  8
0
 10
210.523181
 20
17.216582
 30
0.0
 11
210.963181
 21
17.216582
 31
0.0
  0
LINE
  8
0
 10
210.963181
 20
17.216582
 30
0.0
 11
210.963181
 21
17.506504
 31
0.0
  0
LINE
  8
0
 10
210.523181
 20
17.216582
 30
0.0
 11
210.523181
 21
17.506504
 31
0.0
  0
LINE
  8
0
 10
211.293181
 20
16.656946
 30
0.0
 11
211.293181
 21
17.506504
 31
0.0
  0
TEXT
  8
0
 10
212.586922
 20
18.562472
 30
0.0
 40
0.1
  1
2.23
  7
ROMANC
  0
TEXT
  8
0
 10
210.664601
 20
20.379389
 30
0.0
 40
0.1
  1
1.38
  7
ROMANC
  0
LINE
  8
MESURA
  6
BYBLOCK
 62
     0
 10
211.590403
 20
18.756504
 30
0.0
 11
211.790403
 21
18.956504
 31
0.0
  0
LINE
  8
MESURA
  6
BYBLOCK
 62
     0
 10
212.220404
 20
19.636504
 30
0.0
 11
212.420404
 21
19.836504
 31
0.0
  0
LINE
  8
MESURA
  6
BYBLOCK
 62
     0
 10
209.953181
 20
20.124626
 30
0.0
 11
210.153181
 21
20.324626
 31
0.0
  0
LINE
  8
MESURA
  6
BYBLOCK
 62
     0
 10
211.333181
 20
20.124626
 30
0.0
 11
211.533181
 21
20.324626
 31
0.0
  0
LINE
  8
0
 10
210.743181
 20
19.736504
 30
0.0
 11
212.320404
 21
19.736504
 31
0.0
  0
LINE
  8
0
 10
211.433181
 20
18.856504
 30
0.0
 11
211.690403
 21
18.856504
 31
0.0
  0
LINE
  8
0
 10
210.053181
 20
20.224626
 30
0.0
 11
211.433181
 21
20.224626
 31
0.0
  0
POLYLINE
  8
0
 66
     1
 10
0.0
 20
0.0
 30
0.0
  0
VERTEX
  8
0
 10
210.053181
 20
18.856504
 30
0.0
 42
0.07867
  0
VERTEX
  8
0
 10
210.053181
 20
18.856504
 30
0.0
 42
0.07867
  0
SEQEND
  8
0
  0
LINE
  8
0
 10
210.053181
 20
18.856504
 30
0.0
 11
210.053181
 21
20.224626
 31
0.0
  0
LINE
  8
0
 10
211.433181
 20
18.856504
 30
0.0
 11
211.433181
 21
20.224626
 31
0.0
  0
LINE
  8
0
 10
216.222516
 20
28.500243
 30
0.0
 11
205.722516
 21
28.500243
 31
0.0
  0
TEXT
  8
0
 10
208.252489
 20
25.610388
 30
0.0
 40
0.3
  1
ESCALA  1:50
  7
ROMANC
  0
TEXT
  8
0
 10
208.265583
 20
25.011798
 30
0.0
 40
0.3
  1
S =  268 dm
  7
ROMANC
  0
TEXT
  8
0
 10
208.252489
 20
26.096102
 30
0.0
 40
0.3
  1
TIPUS   NT268
  7
ROMANC
  0
TEXT
  8
0
 10
211.773414
 20
25.317714
 30
0.0
 40
0.1
  1
2
  7
ROMANC
  0
ENDSEC
  0
EOF
