  0
SECTION
  2
HEADER
  9
$ACADVER
  1
AC1009
  9
$INSBASE
 10
105.464027
 20
-4.528761
 30
0.0
  9
$EXTMIN
 10
281.395795
 20
29.897444
 30
0.0
  9
$EXTMAX
 10
291.895795
 20
44.747444
 30
0.0
  9
$LIMMIN
 10
0.0
 20
0.0
  9
$LIMMAX
 10
410.0
 20
287.0
  9
$ORTHOMODE
 70
     1
  9
$REGENMODE
 70
     1
  9
$FILLMODE
 70
     1
  9
$QTEXTMODE
 70
     0
  9
$MIRRTEXT
 70
     1
  9
$DRAGMODE
 70
     2
  9
$LTSCALE
 40
25.0
  9
$OSMODE
 70
    32
  9
$ATTMODE
 70
     1
  9
$TEXTSIZE
 40
0.1
  9
$TRACEWID
 40
1.0
  9
$TEXTSTYLE
  7
ROMANC
  9
$CLAYER
  8
0
  9
$CELTYPE
  6
BYLAYER
  9
$CECOLOR
 62
   256
  9
$DIMSCALE
 40
1.5
  9
$DIMASZ
 40
0.1
  9
$DIMEXO
 40
0.01
  9
$DIMDLI
 40
7.0
  9
$DIMRND
 40
0.0
  9
$DIMDLE
 40
0.0
  9
$DIMEXE
 40
0.01
  9
$DIMTP
 40
0.0
  9
$DIMTM
 40
0.0
  9
$DIMTXT
 40
0.05
  9
$DIMCEN
 40
0.1
  9
$DIMTSZ
 40
0.0
  9
$DIMTOL
 70
     0
  9
$DIMLIM
 70
     0
  9
$DIMTIH
 70
     0
  9
$DIMTOH
 70
     0
  9
$DIMSE1
 70
     0
  9
$DIMSE2
 70
     0
  9
$DIMTAD
 70
     1
  9
$DIMZIN
 70
     0
  9
$DIMBLK
  1

  9
$DIMASO
 70
     1
  9
$DIMSHO
 70
     0
  9
$DIMPOST
  1

  9
$DIMAPOST
  1

  9
$DIMALT
 70
     0
  9
$DIMALTD
 70
     2
  9
$DIMALTF
 40
25.4
  9
$DIMLFAC
 40
1.0
  9
$DIMTOFL
 70
     1
  9
$DIMTVP
 40
0.0
  9
$DIMTIX
 70
     1
  9
$DIMSOXD
 70
     0
  9
$DIMSAH
 70
     0
  9
$DIMBLK1
  1

  9
$DIMBLK2
  1

  9
$DIMSTYLE
  2
*UNNAMED
  9
$DIMCLRD
 70
     0
  9
$DIMCLRE
 70
     0
  9
$DIMCLRT
 70
     0
  9
$DIMTFAC
 40
70.0
  9
$DIMGAP
 40
0.09
  9
$LUNITS
 70
     2
  9
$LUPREC
 70
     2
  9
$SKETCHINC
 40
1.0
  9
$FILLETRAD
 40
0.0
  9
$AUNITS
 70
     0
  9
$AUPREC
 70
     0
  9
$MENU
  1
acad
  9
$ELEVATION
 40
0.0
  9
$PELEVATION
 40
0.0
  9
$THICKNESS
 40
0.0
  9
$LIMCHECK
 70
     0
  9
$BLIPMODE
 70
     0
  9
$CHAMFERA
 40
0.0
  9
$CHAMFERB
 40
0.0
  9
$SKPOLY
 70
     0
  9
$TDCREATE
 40
2450305.554557986
  9
$TDUPDATE
 40
2450910.689036458
  9
$TDINDWG
 40
0.0844372685
  9
$TDUSRTIMER
 40
0.0844372685
  9
$USRTIMER
 70
     1
  9
$ANGBASE
 50
0.0
  9
$ANGDIR
 70
     0
  9
$PDMODE
 70
     0
  9
$PDSIZE
 40
0.0
  9
$PLINEWID
 40
0.0
  9
$COORDS
 70
     2
  9
$SPLFRAME
 70
     0
  9
$SPLINETYPE
 70
     6
  9
$SPLINESEGS
 70
     8
  9
$ATTDIA
 70
     0
  9
$ATTREQ
 70
     1
  9
$HANDLING
 70
     0
  9
$HANDSEED
  5
0
  9
$SURFTAB1
 70
     6
  9
$SURFTAB2
 70
     6
  9
$SURFTYPE
 70
     6
  9
$SURFU
 70
     6
  9
$SURFV
 70
     6
  9
$UCSNAME
  2

  9
$UCSORG
 10
0.0
 20
0.0
 30
0.0
  9
$UCSXDIR
 10
1.0
 20
0.0
 30
0.0
  9
$UCSYDIR
 10
0.0
 20
1.0
 30
0.0
  9
$PUCSNAME
  2

  9
$PUCSORG
 10
0.0
 20
0.0
 30
0.0
  9
$PUCSXDIR
 10
1.0
 20
0.0
 30
0.0
  9
$PUCSYDIR
 10
0.0
 20
1.0
 30
0.0
  9
$USERI1
 70
     0
  9
$USERI2
 70
     0
  9
$USERI3
 70
     0
  9
$USERI4
 70
     0
  9
$USERI5
 70
     0
  9
$USERR1
 40
0.0
  9
$USERR2
 40
0.0
  9
$USERR3
 40
0.0
  9
$USERR4
 40
0.0
  9
$USERR5
 40
0.0
  9
$WORLDVIEW
 70
     1
  9
$SHADEDGE
 70
     3
  9
$SHADEDIF
 70
    70
  9
$TILEMODE
 70
     1
  9
$MAXACTVP
 70
    16
  9
$PINSBASE
 10
0.0
 20
0.0
 30
0.0
  9
$PLIMCHECK
 70
     0
  9
$PEXTMIN
 10
1.000000E+20
 20
1.000000E+20
 30
1.000000E+20
  9
$PEXTMAX
 10
-1.000000E+20
 20
-1.000000E+20
 30
-1.000000E+20
  9
$PLIMMIN
 10
0.0
 20
0.0
  9
$PLIMMAX
 10
12.0
 20
9.0
  9
$UNITMODE
 70
     0
  9
$VISRETAIN
 70
     0
  9
$PLINEGEN
 70
     0
  9
$PSLTSCALE
 70
     0
  9
$TREEDEPTH
 70
  3020
  9
$DWGCODEPAGE
  3
iso8859-1
  0
ENDSEC
  0
SECTION
  2
TABLES
  0
TABLE
  2
VPORT
 70
     2
  0
VPORT
  2
*ACTIVE
 70
     0
 10
0.0
 20
0.0
 11
1.0
 21
1.0
 12
292.715233
 22
37.322444
 13
0.0
 23
0.0
 14
1.0
 24
1.0
 15
10.0
 25
10.0
 16
0.0
 26
0.0
 36
1.0
 17
0.0
 27
0.0
 37
0.0
 40
14.85
 41
1.524503
 42
50.0
 43
0.0
 44
0.0
 50
0.0
 51
0.0
 71
     0
 72
   100
 73
     1
 74
     0
 75
     0
 76
     0
 77
     0
 78
     1
  0
ENDTAB
  0
TABLE
  2
LTYPE
 70
     1
  0
LTYPE
  2
CONTINUOUS
 70
    64
  3
Solid line
 72
    65
 73
     0
 40
0.0
  0
ENDTAB
  0
TABLE
  2
LAYER
 70
     3
  0
LAYER
  2
0
 70
    64
 62
     7
  6
CONTINUOUS
  0
LAYER
  2
MESURA
 70
     0
 62
     7
  6
CONTINUOUS
  0
LAYER
  2
DEFPOINTS
 70
     0
 62
     7
  6
CONTINUOUS
  0
ENDTAB
  0
TABLE
  2
STYLE
 70
     2
  0
STYLE
  2
STANDARD
 70
     0
 40
0.0
 41
1.0
 50
0.0
 71
     0
 42
0.1
  3
txt
  4

  0
STYLE
  2
ROMANC
 70
    64
 40
0.0
 41
1.0
 50
0.0
 71
     0
 42
0.1
  3
romanc
  4

  0
ENDTAB
  0
TABLE
  2
VIEW
 70
     0
  0
ENDTAB
  0
TABLE
  2
UCS
 70
     0
  0
ENDTAB
  0
TABLE
  2
APPID
 70
     1
  0
APPID
  2
ACAD
 70
    64
  0
ENDTAB
  0
TABLE
  2
DIMSTYLE
 70
     1
  0
DIMSTYLE
  2
SILVIA
 70
     0
  3

  4

  5

  6

  7

 40
1.5
 41
0.1
 42
0.01
 43
7.0
 44
0.01
 45
0.0
 46
0.0
 47
0.0
 48
0.0
140
0.05
141
0.1
142
0.0
143
25.4
144
1.0
145
0.0
146
70.0
147
0.09
 71
     0
 72
     0
 73
     0
 74
     0
 75
     0
 76
     0
 77
     1
 78
     0
170
     0
171
     2
172
     1
173
     0
174
     1
175
     0
176
     0
177
     0
178
     0
  0
ENDTAB
  0
ENDSEC
  0
SECTION
  2
BLOCKS
  0
BLOCK
  8
0
  2
*D0
 70
    65
 10
0.0
 20
0.0
 30
0.0
  3
*D
  0
LINE
  8
0
  6
BYBLOCK
 62
     0
 10
285.508041
 20
35.754882
 30
0.0
 11
285.508041
 21
34.637225
 31
0.0
  0
LINE
  8
0
  6
BYBLOCK
 62
     0
 10
287.622822
 20
35.774355
 30
0.0
 11
287.622822
 21
34.637225
 31
0.0
  0
LINE
  8
0
  6
BYBLOCK
 62
     0
 10
285.658041
 20
34.652225
 30
0.0
 11
287.472822
 21
34.652225
 31
0.0
  0
SOLID
  8
0
  6
BYBLOCK
 62
     0
 10
285.658041
 20
34.677225
 30
0.0
 11
285.658041
 21
34.627225
 31
0.0
 12
285.508041
 22
34.652225
 32
0.0
 13
285.508041
 23
34.652225
 33
0.0
  0
SOLID
  8
0
  6
BYBLOCK
 62
     0
 10
287.472822
 20
34.677225
 30
0.0
 11
287.472822
 21
34.627225
 31
0.0
 12
287.622822
 22
34.652225
 32
0.0
 13
287.622822
 23
34.652225
 33
0.0
  0
TEXT
  8
0
  6
BYBLOCK
 62
     0
 10
286.444003
 20
34.689725
 30
0.0
 40
0.075
  1
2.11
  7
ROMANC
 72
     1
 11
286.565432
 21
34.727225
 31
0.0
 73
     2
  0
POINT
  8
DEFPOINTS
  6
BYBLOCK
 62
     0
 10
285.508041
 20
35.769882
 30
0.0
  0
POINT
  8
DEFPOINTS
  6
BYBLOCK
 62
     0
 10
287.622822
 20
35.789355
 30
0.0
  0
POINT
  8
DEFPOINTS
  6
BYBLOCK
 62
     0
 10
287.622822
 20
34.652225
 30
0.0
  0
ENDBLK
  8
0
  0
BLOCK
  8
0
  2
*D1
 70
    65
 10
0.0
 20
0.0
 30
0.0
  3
*D
  0
LINE
  8
0
  6
BYBLOCK
 62
     0
 10
286.593399
 20
36.579952
 30
0.0
 11
288.030934
 21
36.579952
 31
0.0
  0
LINE
  8
0
  6
BYBLOCK
 62
     0
 10
286.567465
 20
34.979285
 30
0.0
 11
288.030934
 21
34.979285
 31
0.0
  0
LINE
  8
0
  6
BYBLOCK
 62
     0
 10
288.015934
 20
36.429952
 30
0.0
 11
288.015934
 21
35.129285
 31
0.0
  0
SOLID
  8
0
  6
BYBLOCK
 62
     0
 10
287.990934
 20
36.429952
 30
0.0
 11
288.040934
 21
36.429952
 31
0.0
 12
288.015934
 22
36.579952
 32
0.0
 13
288.015934
 23
36.579952
 33
0.0
  0
SOLID
  8
0
  6
BYBLOCK
 62
     0
 10
287.990934
 20
35.129285
 30
0.0
 11
288.040934
 21
35.129285
 31
0.0
 12
288.015934
 22
34.979285
 32
0.0
 13
288.015934
 23
34.979285
 33
0.0
  0
TEXT
  8
0
  6
BYBLOCK
 62
     0
 10
287.978434
 20
35.649261
 30
0.0
 40
0.075
  1
1.60
 50
90.0
  7
ROMANC
 72
     1
 11
287.940934
 21
35.779619
 31
0.0
 73
     2
  0
POINT
  8
DEFPOINTS
  6
BYBLOCK
 62
     0
 10
286.578399
 20
36.579952
 30
0.0
  0
POINT
  8
DEFPOINTS
  6
BYBLOCK
 62
     0
 10
286.552465
 20
34.979285
 30
0.0
  0
POINT
  8
DEFPOINTS
  6
BYBLOCK
 62
     0
 10
288.015934
 20
34.979285
 30
0.0
  0
ENDBLK
  8
0
  0
ENDSEC
  0
SECTION
  2
ENTITIES
  0
LINE
  8
0
 10
291.895795
 20
29.897444
 30
0.0
 11
291.895795
 21
44.747444
 31
0.0
  0
TEXT
  8
0
 10
283.887846
 20
40.56142
 30
0.0
 40
0.3
  1
P = 58.6 dm
  7
ROMANC
  0
LINE
  8
0
 10
281.395795
 20
44.747444
 30
0.0
 11
281.395795
 21
29.897444
 31
0.0
  0
LINE
  8
0
 10
281.395795
 20
29.897444
 30
0.0
 11
291.895795
 21
29.897444
 31
0.0
  0
LINE
  8
0
 10
291.895795
 20
44.747444
 30
0.0
 11
281.395795
 21
44.747444
 31
0.0
  0
TEXT
  8
0
 10
287.122271
 20
41.564915
 30
0.0
 40
0.1
  1
2
  7
ROMANC
  0
TEXT
  8
0
 10
283.925768
 20
41.857589
 30
0.0
 40
0.3
  1
ESCALA  1:50
  7
ROMANC
  0
TEXT
  8
0
 10
283.925768
 20
42.343303
 30
0.0
 40
0.3
  1
TIPUS   NT266B
  7
ROMANC
  0
TEXT
  8
0
 10
283.938862
 20
41.258999
 30
0.0
 40
0.3
  1
S = 266 dm
  7
ROMANC
  0
ARC
  8
0
 10
285.649957
 20
35.080211
 30
0.0
 40
1.408009
 50
91.253352
 51
108.65585
  0
ARC
  8
0
 10
285.552427
 20
35.369086
 30
0.0
 40
1.103114
 50
108.65585
 51
128.367572
  0
ARC
  8
0
 10
285.408744
 20
35.550579
 30
0.0
 40
0.871631
 50
128.367572
 51
152.556788
  0
ARC
  8
0
 10
285.191971
 20
35.663151
 30
0.0
 40
0.627372
 50
152.556788
 51
181.253352
  0
ARC
  8
0
 10
285.191971
 20
35.663151
 30
0.0
 40
0.627372
 50
181.253352
 51
209.949916
  0
ARC
  8
0
 10
285.403613
 20
35.785095
 30
0.0
 40
0.871631
 50
209.949916
 51
234.139132
  0
ARC
  8
0
 10
285.53922
 20
35.972699
 30
0.0
 40
1.103114
 50
234.139132
 51
253.850853
  0
ARC
  8
0
 10
285.624023
 20
36.265563
 30
0.0
 40
1.408009
 50
253.850853
 51
271.253352
  0
ARC
  8
0
 10
285.624023
 20
36.265563
 30
0.0
 40
1.408009
 50
271.253352
 51
288.65585
  0
ARC
  8
0
 10
285.721554
 20
35.976688
 30
0.0
 40
1.103114
 50
288.65585
 51
308.367572
  0
ARC
  8
0
 10
285.865237
 20
35.795195
 30
0.0
 40
0.871631
 50
308.367572
 51
332.556788
  0
ARC
  8
0
 10
286.082009
 20
35.682623
 30
0.0
 40
0.627372
 50
332.556788
 51
1.253352
  0
ARC
  8
0
 10
286.082009
 20
35.682623
 30
0.0
 40
0.627372
 50
1.253352
 51
29.949916
  0
ARC
  8
0
 10
285.870367
 20
35.560678
 30
0.0
 40
0.871631
 50
29.949916
 51
54.139132
  0
ARC
  8
0
 10
285.73476
 20
35.373075
 30
0.0
 40
1.103114
 50
54.139132
 51
73.850853
  0
ARC
  8
0
 10
285.649957
 20
35.080211
 30
0.0
 40
1.408009
 50
73.850853
 51
91.253352
  0
ARC
  8
0
 10
285.649957
 20
35.080211
 30
0.0
 40
1.400509
 50
91.253352
 51
108.65585
  0
ARC
  8
0
 10
285.552427
 20
35.369086
 30
0.0
 40
1.095614
 50
108.65585
 51
128.367572
  0
ARC
  8
0
 10
285.408744
 20
35.550579
 30
0.0
 40
0.864131
 50
128.367572
 51
152.556788
  0
ARC
  8
0
 10
285.191971
 20
35.663151
 30
0.0
 40
0.619872
 50
152.556788
 51
181.253352
  0
ARC
  8
0
 10
285.191971
 20
35.663151
 30
0.0
 40
0.619872
 50
181.253352
 51
209.949916
  0
ARC
  8
0
 10
285.403613
 20
35.785095
 30
0.0
 40
0.864131
 50
209.949916
 51
234.139132
  0
ARC
  8
0
 10
285.53922
 20
35.972699
 30
0.0
 40
1.095614
 50
234.139132
 51
253.850853
  0
ARC
  8
0
 10
285.624023
 20
36.265563
 30
0.0
 40
1.400509
 50
253.850853
 51
271.253352
  0
ARC
  8
0
 10
285.624023
 20
36.265563
 30
0.0
 40
1.400509
 50
271.253352
 51
288.65585
  0
ARC
  8
0
 10
285.721554
 20
35.976688
 30
0.0
 40
1.095614
 50
288.65585
 51
308.367572
  0
ARC
  8
0
 10
285.865237
 20
35.795195
 30
0.0
 40
0.864131
 50
308.367572
 51
332.556788
  0
ARC
  8
0
 10
286.082009
 20
35.682623
 30
0.0
 40
0.619872
 50
332.556788
 51
1.253352
  0
ARC
  8
0
 10
286.082009
 20
35.682623
 30
0.0
 40
0.619872
 50
1.253352
 51
29.949916
  0
ARC
  8
0
 10
285.870367
 20
35.560678
 30
0.0
 40
0.864131
 50
29.949916
 51
54.139132
  0
ARC
  8
0
 10
285.73476
 20
35.373075
 30
0.0
 40
1.095614
 50
54.139132
 51
73.850853
  0
ARC
  8
0
 10
285.649957
 20
35.080211
 30
0.0
 40
1.400509
 50
73.850853
 51
91.253352
  0
LINE
  8
0
  6
BYBLOCK
 62
     0
 10
285.664957
 20
36.47322
 30
0.0
 11
287.102492
 21
36.47322
 31
0.0
  0
LINE
  8
0
  6
BYBLOCK
 62
     0
 10
285.639023
 20
34.872554
 30
0.0
 11
287.102492
 21
34.872554
 31
0.0
  0
LINE
  8
0
  6
BYBLOCK
 62
     0
 10
287.087492
 20
36.32322
 30
0.0
 11
287.087492
 21
35.022554
 31
0.0
  0
SOLID
  8
0
  6
BYBLOCK
 62
     0
 10
287.062492
 20
36.32322
 30
0.0
 11
287.112492
 21
36.32322
 31
0.0
 12
287.087492
 22
36.47322
 32
0.0
 13
287.087492
 23
36.47322
 33
0.0
  0
SOLID
  8
0
  6
BYBLOCK
 62
     0
 10
287.062492
 20
35.022554
 30
0.0
 11
287.112492
 21
35.022554
 31
0.0
 12
287.087492
 22
34.872554
 32
0.0
 13
287.087492
 23
34.872554
 33
0.0
  0
TEXT
  8
0
  6
BYBLOCK
 62
     0
 10
287.049992
 20
35.54253
 30
0.0
 40
0.075
  1
1.60
 50
90.0
  7
ROMANC
 72
     1
 11
287.012492
 21
35.672887
 31
0.0
 73
     2
  0
POINT
  8
DEFPOINTS
  6
BYBLOCK
 62
     0
 10
285.649957
 20
36.47322
 30
0.0
  0
POINT
  8
DEFPOINTS
  6
BYBLOCK
 62
     0
 10
285.624023
 20
34.872554
 30
0.0
  0
POINT
  8
DEFPOINTS
  6
BYBLOCK
 62
     0
 10
287.087492
 20
34.872554
 30
0.0
  0
LINE
  8
0
  6
BYBLOCK
 62
     0
 10
284.5796
 20
35.648151
 30
0.0
 11
284.5796
 21
34.530493
 31
0.0
  0
LINE
  8
0
  6
BYBLOCK
 62
     0
 10
286.694381
 20
35.667623
 30
0.0
 11
286.694381
 21
34.530493
 31
0.0
  0
LINE
  8
0
  6
BYBLOCK
 62
     0
 10
284.7296
 20
34.545493
 30
0.0
 11
286.544381
 21
34.545493
 31
0.0
  0
SOLID
  8
0
  6
BYBLOCK
 62
     0
 10
284.7296
 20
34.570493
 30
0.0
 11
284.7296
 21
34.520493
 31
0.0
 12
284.5796
 22
34.545493
 32
0.0
 13
284.5796
 23
34.545493
 33
0.0
  0
SOLID
  8
0
  6
BYBLOCK
 62
     0
 10
286.544381
 20
34.570493
 30
0.0
 11
286.544381
 21
34.520493
 31
0.0
 12
286.694381
 22
34.545493
 32
0.0
 13
286.694381
 23
34.545493
 33
0.0
  0
TEXT
  8
0
  6
BYBLOCK
 62
     0
 10
285.515562
 20
34.582993
 30
0.0
 40
0.075
  1
2.11
  7
ROMANC
 72
     1
 11
285.63699
 21
34.620493
 31
0.0
 73
     2
  0
POINT
  8
DEFPOINTS
  6
BYBLOCK
 62
     0
 10
284.5796
 20
35.663151
 30
0.0
  0
POINT
  8
DEFPOINTS
  6
BYBLOCK
 62
     0
 10
286.694381
 20
35.682623
 30
0.0
  0
POINT
  8
DEFPOINTS
  6
BYBLOCK
 62
     0
 10
286.694381
 20
34.545493
 30
0.0
  0
ARC
  8
0
 10
285.649957
 20
35.080211
 30
0.0
 40
1.393009
 50
91.253352
 51
108.65585
  0
ARC
  8
0
 10
285.552427
 20
35.369086
 30
0.0
 40
1.088114
 50
108.65585
 51
128.367572
  0
ARC
  8
0
 10
285.408744
 20
35.550579
 30
0.0
 40
0.856631
 50
128.367572
 51
152.556788
  0
ARC
  8
0
 10
285.191971
 20
35.663151
 30
0.0
 40
0.612372
 50
152.556788
 51
181.253352
  0
ARC
  8
0
 10
285.191971
 20
35.663151
 30
0.0
 40
0.612372
 50
181.253352
 51
209.949916
  0
ARC
  8
0
 10
285.403613
 20
35.785095
 30
0.0
 40
0.856631
 50
209.949916
 51
234.139132
  0
ARC
  8
0
 10
285.53922
 20
35.972699
 30
0.0
 40
1.088114
 50
234.139132
 51
253.850853
  0
ARC
  8
0
 10
285.624023
 20
36.265563
 30
0.0
 40
1.393009
 50
253.850853
 51
271.253352
  0
ARC
  8
0
 10
285.624023
 20
36.265563
 30
0.0
 40
1.393009
 50
271.253352
 51
288.65585
  0
ARC
  8
0
 10
285.721554
 20
35.976688
 30
0.0
 40
1.088114
 50
288.65585
 51
308.367572
  0
ARC
  8
0
 10
285.865237
 20
35.795195
 30
0.0
 40
0.856631
 50
308.367572
 51
332.556788
  0
ARC
  8
0
 10
286.082009
 20
35.682623
 30
0.0
 40
0.612372
 50
332.556788
 51
1.253352
  0
ARC
  8
0
 10
286.082009
 20
35.682623
 30
0.0
 40
0.612372
 50
1.253352
 51
29.949916
  0
ARC
  8
0
 10
285.870367
 20
35.560678
 30
0.0
 40
0.856631
 50
29.949916
 51
54.139132
  0
ARC
  8
0
 10
285.73476
 20
35.373075
 30
0.0
 40
1.088114
 50
54.139132
 51
73.850853
  0
ARC
  8
0
 10
285.649957
 20
35.080211
 30
0.0
 40
1.393009
 50
73.850853
 51
91.253352
  0
ENDSEC
  0
EOF
