  0
SECTION
  2
HEADER
  9
$ACADVER
  1
AC1009
  9
$INSBASE
 10
0.0
 20
0.0
 30
0.0
  9
$EXTMIN
 10
281.396
 20
29.897
 30
0.0
  9
$EXTMAX
 10
291.896
 20
44.747
 30
0.0
  9
$LIMMIN
 10
280.396
 20
28.897
  9
$LIMMAX
 10
292.896
 20
43.747
  9
$ORTHOMODE
 70
     0
  9
$REGENMODE
 70
     1
  9
$FILLMODE
 70
     1
  9
$QTEXTMODE
 70
     0
  9
$MIRRTEXT
 70
     1
  9
$DRAGMODE
 70
     2
  9
$LTSCALE
 40
1.0
  9
$OSMODE
 70
     0
  9
$ATTMODE
 70
     1
  9
$TEXTSIZE
 40
0.2
  9
$TRACEWID
 40
0.05
  9
$TEXTSTYLE
  7
STANDARD
  9
$CLAYER
  8
0
  9
$CELTYPE
  6
BYLAYER
  9
$CECOLOR
 62
   256
  9
$DIMSCALE
 40
1.0
  9
$DIMASZ
 40
0.18
  9
$DIMEXO
 40
0.0625
  9
$DIMDLI
 40
0.38
  9
$DIMRND
 40
0.0
  9
$DIMDLE
 40
0.0
  9
$DIMEXE
 40
0.18
  9
$DIMTP
 40
0.0
  9
$DIMTM
 40
0.0
  9
$DIMTXT
 40
0.18
  9
$DIMCEN
 40
0.09
  9
$DIMTSZ
 40
0.0
  9
$DIMTOL
 70
     0
  9
$DIMLIM
 70
     0
  9
$DIMTIH
 70
     1
  9
$DIMTOH
 70
     1
  9
$DIMSE1
 70
     0
  9
$DIMSE2
 70
     0
  9
$DIMTAD
 70
     0
  9
$DIMZIN
 70
     0
  9
$DIMBLK
  1

  9
$DIMASO
 70
     1
  9
$DIMSHO
 70
     1
  9
$DIMPOST
  1

  9
$DIMAPOST
  1

  9
$DIMALT
 70
     0
  9
$DIMALTD
 70
     2
  9
$DIMALTF
 40
25.4
  9
$DIMLFAC
 40
1.0
  9
$DIMTOFL
 70
     0
  9
$DIMTVP
 40
0.0
  9
$DIMTIX
 70
     0
  9
$DIMSOXD
 70
     0
  9
$DIMSAH
 70
     0
  9
$DIMBLK1
  1

  9
$DIMBLK2
  1

  9
$DIMSTYLE
  2
*UNNAMED
  9
$DIMCLRD
 70
     0
  9
$DIMCLRE
 70
     0
  9
$DIMCLRT
 70
     0
  9
$DIMTFAC
 40
1.0
  9
$DIMGAP
 40
0.09
  9
$LUNITS
 70
     2
  9
$LUPREC
 70
     4
  9
$SKETCHINC
 40
0.1
  9
$FILLETRAD
 40
0.0
  9
$AUNITS
 70
     0
  9
$AUPREC
 70
     0
  9
$MENU
  1
acad
  9
$ELEVATION
 40
0.0
  9
$PELEVATION
 40
0.0
  9
$THICKNESS
 40
0.0
  9
$LIMCHECK
 70
     0
  9
$BLIPMODE
 70
     1
  9
$CHAMFERA
 40
0.0
  9
$CHAMFERB
 40
0.0
  9
$SKPOLY
 70
     0
  9
$TDCREATE
 40
2448315.373408102
  9
$TDUPDATE
 40
2448315.373408102
  9
$TDINDWG
 40
0.0000000000
  9
$TDUSRTIMER
 40
0.0000000000
  9
$USRTIMER
 70
     1
  9
$ANGBASE
 50
0.0
  9
$ANGDIR
 70
     0
  9
$PDMODE
 70
     0
  9
$PDSIZE
 40
0.0
  9
$PLINEWID
 40
0.0
  9
$COORDS
 70
     0
  9
$SPLFRAME
 70
     0
  9
$SPLINETYPE
 70
     6
  9
$SPLINESEGS
 70
     8
  9
$ATTDIA
 70
     0
  9
$ATTREQ
 70
     1
  9
$HANDLING
 70
     0
  9
$HANDSEED
  5
0
  9
$SURFTAB1
 70
     6
  9
$SURFTAB2
 70
     6
  9
$SURFTYPE
 70
     6
  9
$SURFU
 70
     6
  9
$SURFV
 70
     6
  9
$UCSNAME
  2

  9
$UCSORG
 10
0.0
 20
0.0
 30
0.0
  9
$UCSXDIR
 10
1.0
 20
0.0
 30
0.0
  9
$UCSYDIR
 10
0.0
 20
1.0
 30
0.0
  9
$PUCSNAME
  2

  9
$PUCSORG
 10
0.0
 20
0.0
 30
0.0
  9
$PUCSXDIR
 10
1.0
 20
0.0
 30
0.0
  9
$PUCSYDIR
 10
0.0
 20
1.0
 30
0.0
  9
$USERI1
 70
     0
  9
$USERI2
 70
     0
  9
$USERI3
 70
     0
  9
$USERI4
 70
     0
  9
$USERI5
 70
     0
  9
$USERR1
 40
0.0
  9
$USERR2
 40
0.0
  9
$USERR3
 40
0.0
  9
$USERR4
 40
0.0
  9
$USERR5
 40
0.0
  9
$WORLDVIEW
 70
     1
  9
$SHADEDGE
 70
     3
  9
$SHADEDIF
 70
    70
  9
$TILEMODE
 70
     1
  9
$MAXACTVP
 70
    16
  9
$PINSBASE
 10
0.0
 20
0.0
 30
0.0
  9
$PLIMCHECK
 70
     0
  9
$PEXTMIN
 10
1.000000E+20
 20
1.000000E+20
 30
1.000000E+20
  9
$PEXTMAX
 10
-1.000000E+20
 20
-1.000000E+20
 30
-1.000000E+20
  9
$PLIMMIN
 10
0.0
 20
0.0
  9
$PLIMMAX
 10
12.0
 20
9.0
  9
$UNITMODE
 70
     0
  9
$VISRETAIN
 70
     0
  9
$PLINEGEN
 70
     0
  9
$PSLTSCALE
 70
     0
  9
$TREEDEPTH
 70
  3020
  9
$DWGCODEPAGE
  3
iso8859-1
  0
ENDSEC
  0
SECTION
  2
TABLES
  0
TABLE
  2
VPORT
 70
     2
  0
VPORT
  2
*ACTIVE
 70
     0
 10
0.0
 20
0.0
 11
1.0
 21
1.0
 12
293.35785
 22
37.322
 13
0.0
 23
0.0
 14
1.0
 24
1.0
 15
10.0
 25
10.0
 16
0.0
 26
0.0
 36
1.0
 17
0.0
 27
0.0
 37
0.0
 40
14.85
 41
1.611024
 42
50.0
 43
0.0
 44
0.0
 50
0.0
 51
0.0
 71
     0
 72
   100
 73
     1
 74
     0
 75
     0
 76
     0
 77
     0
 78
     0
  0
ENDTAB
  0
TABLE
  2
LTYPE
 70
     1
  0
LTYPE
  2
CONTINUOUS
 70
    64
  3
Solid line
 72
    65
 73
     0
 40
0.0
  0
ENDTAB
  0
TABLE
  2
LAYER
 70
     7
  0
LAYER
  2
0
 70
    64
 62
     7
  6
CONTINUOUS
  0
LAYER
  2
1
 70
    64
 62
     7
  6
CONTINUOUS
  0
LAYER
  2
7
 70
    64
 62
     7
  6
CONTINUOUS
  0
LAYER
  2
8
 70
    64
 62
     7
  6
CONTINUOUS
  0
LAYER
  2
9
 70
    64
 62
     7
  6
CONTINUOUS
  0
LAYER
  2
22
 70
    64
 62
     7
  6
CONTINUOUS
  0
LAYER
  2
25
 70
    64
 62
     7
  6
CONTINUOUS
  0
ENDTAB
  0
TABLE
  2
STYLE
 70
     2
  0
STYLE
  2
STANDARD
 70
     0
 40
0.0
 41
1.0
 50
0.0
 71
     0
 42
3.5
  3
txt
  4

  0
STYLE
  2
ROMANC
 70
     0
 40
0.0
 41
1.0
 50
0.0
 71
     0
 42
0.2
  3
ROMANC
  4

  0
ENDTAB
  0
TABLE
  2
VIEW
 70
     0
  0
ENDTAB
  0
TABLE
  2
UCS
 70
     0
  0
ENDTAB
  0
TABLE
  2
APPID
 70
     1
  0
APPID
  2
ACAD
 70
    64
  0
ENDTAB
  0
TABLE
  2
DIMSTYLE
 70
     0
  0
ENDTAB
  0
ENDSEC
  0
SECTION
  2
BLOCKS
  0
ENDSEC
  0
SECTION
  2
ENTITIES
  0
TEXT
  8
0
  6
CONTINUOUS
 10
287.095904
 20
41.370698
 30
0.0
 40
0.1
  1
2
  7
ROMANC
  0
TEXT
  8
0
  6
CONTINUOUS
 10
283.926
 20
41.768
 30
0.0
 40
0.3
  1
ESCALA  1:50
  7
ROMANC
  0
POLYLINE
  8
0
  6
CONTINUOUS
 66
     1
 10
0.0
 20
0.0
 30
0.0
 70
     1
  0
VERTEX
  8
0
  6
CONTINUOUS
 10
281.396
 20
44.747
 30
0.0
  0
VERTEX
  8
0
  6
CONTINUOUS
 10
291.896
 20
44.747
 30
0.0
  0
VERTEX
  8
0
  6
CONTINUOUS
 10
291.896
 20
29.897
 30
0.0
  0
VERTEX
  8
0
  6
CONTINUOUS
 10
281.396
 20
29.897
 30
0.0
  0
SEQEND
  8
0
  0
LINE
  8
1
  6
CONTINUOUS
 10
285.69
 20
32.669
 30
0.0
 11
285.59
 21
33.369
 31
0.0
  0
TEXT
  8
0
  6
CONTINUOUS
 10
283.922
 20
40.529
 30
0.0
 40
0.3
  1
P = 63 dm
  7
ROMANC
  0
TEXT
  8
0
  6
CONTINUOUS
 10
283.945
 20
41.099
 30
0.0
 40
0.3
  1
S = 266 dm
  7
ROMANC
  0
ARC
  8
1
  6
CONTINUOUS
 10
286.44
 20
35.4315
 30
0.0
 40
2.8625
 50
254.810714
 51
285.189286
  0
TEXT
  8
1
  6
CONTINUOUS
 10
286.33
 20
32.38
 30
0.0
 40
0.075
  1
1.50
  7
ROMANC
  0
LINE
  8
1
  6
CONTINUOUS
 10
286.292
 20
32.418
 30
0.0
 11
285.69
 21
32.418
 31
0.0
  0
LINE
  8
1
  6
CONTINUOUS
 10
286.587
 20
32.418
 30
0.0
 11
287.19
 21
32.418
 31
0.0
  0
LINE
  8
1
  6
CONTINUOUS
 10
285.652
 20
32.399
 30
0.0
 11
285.728
 21
32.437
 31
0.0
  0
LINE
  8
1
  6
CONTINUOUS
 10
287.228
 20
32.437
 30
0.0
 11
287.152
 21
32.399
 31
0.0
  0
LINE
  8
1
  6
CONTINUOUS
 10
285.69
 20
32.631
 30
0.0
 11
285.69
 21
32.38
 31
0.0
  0
LINE
  8
1
  6
CONTINUOUS
 10
287.19
 20
32.631
 30
0.0
 11
287.19
 21
32.38
 31
0.0
  0
LINE
  8
1
  6
CONTINUOUS
 10
287.29
 20
33.369
 30
0.0
 11
287.19
 21
32.669
 31
0.0
  0
TEXT
  8
1
  6
CONTINUOUS
 10
287.438
 20
32.9
 30
0.0
 40
0.075
  1
0.70
 50
90.0
  7
ROMANC
  0
LINE
  8
1
  6
CONTINUOUS
 10
287.401
 20
32.862
 30
0.0
 11
287.401
 21
32.669
 31
0.0
  0
LINE
  8
1
  6
CONTINUOUS
 10
287.401
 20
33.174
 30
0.0
 11
287.401
 21
33.634394
 31
0.0
  0
LINE
  8
1
  6
CONTINUOUS
 10
287.42
 20
32.632
 30
0.0
 11
287.382
 21
32.706
 31
0.0
  0
LINE
  8
1
  6
CONTINUOUS
 10
287.382
 20
33.406
 30
0.0
 11
287.42
 21
33.332
 31
0.0
  0
LINE
  8
1
  6
CONTINUOUS
 10
287.228
 20
32.669
 30
0.0
 11
287.439
 21
32.669
 31
0.0
  0
LINE
  8
1
  6
CONTINUOUS
 10
287.328
 20
33.369
 30
0.0
 11
287.439
 21
33.369
 31
0.0
  0
LINE
  8
1
  6
CONTINUOUS
 10
287.29
 20
34.219
 30
0.0
 11
287.29
 21
33.369
 31
0.0
  0
TEXT
  8
1
  6
CONTINUOUS
 10
287.626
 20
33.284
 30
0.0
 40
0.075
  1
1.65
 50
90.0
  7
ROMANC
  0
LINE
  8
1
  6
CONTINUOUS
 10
287.589
 20
33.246
 30
0.0
 11
287.589
 21
32.569
 31
0.0
  0
LINE
  8
1
  6
CONTINUOUS
 10
287.589
 20
33.541
 30
0.0
 11
287.589
 21
34.219
 31
0.0
  0
LINE
  8
1
  6
CONTINUOUS
 10
287.608
 20
32.532
 30
0.0
 11
287.57
 21
32.606
 31
0.0
  0
LINE
  8
1
  6
CONTINUOUS
 10
287.57
 20
34.256
 30
0.0
 11
287.608
 21
34.182
 31
0.0
  0
LINE
  8
1
  6
CONTINUOUS
 10
286.478
 20
32.569
 30
0.0
 11
287.627
 21
32.569
 31
0.0
  0
LINE
  8
1
  6
CONTINUOUS
 10
287.328
 20
34.219
 30
0.0
 11
287.627
 21
34.219
 31
0.0
  0
LINE
  8
1
  6
CONTINUOUS
 10
285.59
 20
33.369
 30
0.0
 11
285.59
 21
34.219
 31
0.0
  0
LINE
  8
1
  6
CONTINUOUS
 10
285.59
 20
34.219
 30
0.0
 11
287.29
 21
34.219
 31
0.0
  0
TEXT
  8
1
  6
CONTINUOUS
 10
286.33
 20
34.354
 30
0.0
 40
0.075
  1
1.70
  7
ROMANC
  0
LINE
  8
1
  6
CONTINUOUS
 10
286.292
 20
34.391
 30
0.0
 11
285.59
 21
34.391
 31
0.0
  0
LINE
  8
1
  6
CONTINUOUS
 10
286.587
 20
34.391
 30
0.0
 11
287.29
 21
34.391
 31
0.0
  0
LINE
  8
1
  6
CONTINUOUS
 10
285.552
 20
34.372
 30
0.0
 11
285.628
 21
34.41
 31
0.0
  0
LINE
  8
1
  6
CONTINUOUS
 10
287.328
 20
34.41
 30
0.0
 11
287.252
 21
34.372
 31
0.0
  0
LINE
  8
1
  6
CONTINUOUS
 10
285.59
 20
34.257
 30
0.0
 11
285.59
 21
34.429
 31
0.0
  0
LINE
  8
1
  6
CONTINUOUS
 10
287.29
 20
34.257
 30
0.0
 11
287.29
 21
34.429
 31
0.0
  0
TEXT
  8
1
  6
CONTINUOUS
 10
286.33
 20
33.346
 30
0.0
 40
0.075
  1
1.70
  7
ROMANC
  0
LINE
  8
1
  6
CONTINUOUS
 10
286.292
 20
33.384
 30
0.0
 11
285.59
 21
33.384
 31
0.0
  0
LINE
  8
1
  6
CONTINUOUS
 10
286.587
 20
33.384
 30
0.0
 11
287.29
 21
33.384
 31
0.0
  0
LINE
  8
1
  6
CONTINUOUS
 10
285.552
 20
33.365
 30
0.0
 11
285.628
 21
33.403
 31
0.0
  0
LINE
  8
1
  6
CONTINUOUS
 10
287.328
 20
33.403
 30
0.0
 11
287.252
 21
33.365
 31
0.0
  0
LINE
  8
1
  6
CONTINUOUS
 10
285.59
 20
33.407
 30
0.0
 11
285.59
 21
33.422
 31
0.0
  0
LINE
  8
1
  6
CONTINUOUS
 10
287.29
 20
33.407
 30
0.0
 11
287.29
 21
33.422
 31
0.0
  0
LINE
  8
1
  6
CONTINUOUS
 10
287.3
 20
34.229
 30
0.0
 11
287.3
 21
33.369
 31
0.0
  0
LINE
  8
1
  6
CONTINUOUS
 10
287.31
 20
34.239
 30
0.0
 11
287.31
 21
33.369
 31
0.0
  0
LINE
  8
1
  6
CONTINUOUS
 10
287.299
 20
33.367
 30
0.0
 11
287.198
 21
32.661
 31
0.0
  0
LINE
  8
1
  6
CONTINUOUS
 10
287.309
 20
33.366
 30
0.0
 11
287.207
 21
32.653
 31
0.0
  0
ARC
  8
1
  6
CONTINUOUS
 10
286.44
 20
35.4315
 30
0.0
 40
2.8725
 50
254.675461
 51
285.303017
  0
ARC
  8
1
  6
CONTINUOUS
 10
286.44
 20
35.4315
 30
0.0
 40
2.8825
 50
254.544075
 51
285.434456
  0
LINE
  8
1
  6
CONTINUOUS
 10
285.681
 20
32.661
 30
0.0
 11
285.58
 21
33.367
 31
0.0
  0
LINE
  8
1
  6
CONTINUOUS
 10
285.672
 20
32.653
 30
0.0
 11
285.57
 21
33.366
 31
0.0
  0
LINE
  8
1
  6
CONTINUOUS
 10
285.58
 20
33.369
 30
0.0
 11
285.58
 21
34.229
 31
0.0
  0
LINE
  8
1
  6
CONTINUOUS
 10
285.57
 20
33.369
 30
0.0
 11
285.57
 21
34.239
 31
0.0
  0
LINE
  8
1
  6
CONTINUOUS
 10
285.58
 20
34.229
 30
0.0
 11
287.3
 21
34.229
 31
0.0
  0
LINE
  8
1
  6
CONTINUOUS
 10
285.57
 20
34.239
 30
0.0
 11
287.31
 21
34.239
 31
0.0
  0
TEXT
  8
0
  6
CONTINUOUS
 10
283.926
 20
42.381
 30
0.0
 40
0.3
  1
TIPUS   NT266
  7
ROMANC
  0
LINE
  8
1
  6
CONTINUOUS
 10
287.382
 20
34.256
 30
0.0
 11
287.42
 21
34.182
 31
0.0
  0
LINE
  8
1
  6
CONTINUOUS
 10
287.401
 20
33.99412
 30
0.0
 11
287.401
 21
34.219
 31
0.0
  0
TEXT
  8
1
  6
CONTINUOUS
 10
287.438
 20
33.699875
 30
0.0
 40
0.075
  1
0.85
 50
90.0
  7
ROMANC
  0
ENDSEC
  0
EOF
