  0
SECTION
  2
HEADER
  9
$ACADVER
  1
AC1009
  9
$INSBASE
 10
0.0
 20
0.0
 30
0.0
  9
$EXTMIN
 10
318.829805
 20
29.85788
 30
0.0
  9
$EXTMAX
 10
329.371339
 20
44.72551
 30
0.0
  9
$LIMMIN
 10
0.0
 20
0.0
  9
$LIMMAX
 10
410.0
 20
287.0
  9
$ORTHOMODE
 70
     1
  9
$REGENMODE
 70
     1
  9
$FILLMODE
 70
     1
  9
$QTEXTMODE
 70
     0
  9
$MIRRTEXT
 70
     1
  9
$DRAGMODE
 70
     2
  9
$LTSCALE
 40
25.0
  9
$OSMODE
 70
     0
  9
$ATTMODE
 70
     1
  9
$TEXTSIZE
 40
0.1
  9
$TRACEWID
 40
1.0
  9
$TEXTSTYLE
  7
ROMANC
  9
$CLAYER
  8
0
  9
$CELTYPE
  6
BYLAYER
  9
$CECOLOR
 62
   256
  9
$DIMSCALE
 40
1.5
  9
$DIMASZ
 40
0.1
  9
$DIMEXO
 40
0.01
  9
$DIMDLI
 40
7.0
  9
$DIMRND
 40
0.0
  9
$DIMDLE
 40
0.0
  9
$DIMEXE
 40
0.01
  9
$DIMTP
 40
0.0
  9
$DIMTM
 40
0.0
  9
$DIMTXT
 40
0.05
  9
$DIMCEN
 40
0.0
  9
$DIMTSZ
 40
0.0
  9
$DIMTOL
 70
     0
  9
$DIMLIM
 70
     0
  9
$DIMTIH
 70
     0
  9
$DIMTOH
 70
     0
  9
$DIMSE1
 70
     0
  9
$DIMSE2
 70
     0
  9
$DIMTAD
 70
     1
  9
$DIMZIN
 70
     0
  9
$DIMBLK
  1

  9
$DIMASO
 70
     1
  9
$DIMSHO
 70
     0
  9
$DIMPOST
  1

  9
$DIMAPOST
  1

  9
$DIMALT
 70
     0
  9
$DIMALTD
 70
     2
  9
$DIMALTF
 40
25.4
  9
$DIMLFAC
 40
1.0
  9
$DIMTOFL
 70
     1
  9
$DIMTVP
 40
0.0
  9
$DIMTIX
 70
     1
  9
$DIMSOXD
 70
     0
  9
$DIMSAH
 70
     0
  9
$DIMBLK1
  1

  9
$DIMBLK2
  1

  9
$DIMSTYLE
  2
MERITXELL
  9
$DIMCLRD
 70
     0
  9
$DIMCLRE
 70
     0
  9
$DIMCLRT
 70
     0
  9
$DIMTFAC
 40
70.0
  9
$DIMGAP
 40
0.025
  9
$LUNITS
 70
     2
  9
$LUPREC
 70
     2
  9
$SKETCHINC
 40
1.0
  9
$FILLETRAD
 40
0.0
  9
$AUNITS
 70
     0
  9
$AUPREC
 70
     0
  9
$MENU
  1
acad
  9
$ELEVATION
 40
0.0
  9
$PELEVATION
 40
0.0
  9
$THICKNESS
 40
0.0
  9
$LIMCHECK
 70
     0
  9
$BLIPMODE
 70
     0
  9
$CHAMFERA
 40
0.0
  9
$CHAMFERB
 40
0.0
  9
$SKPOLY
 70
     0
  9
$TDCREATE
 40
2450927.46195
  9
$TDUPDATE
 40
2450996.607789
  9
$TDINDWG
 40
0.199074
  9
$TDUSRTIMER
 40
0.199074
  9
$USRTIMER
 70
     1
  9
$ANGBASE
 50
0.0
  9
$ANGDIR
 70
     0
  9
$PDMODE
 70
     0
  9
$PDSIZE
 40
0.0
  9
$PLINEWID
 40
0.0
  9
$COORDS
 70
     2
  9
$SPLFRAME
 70
     0
  9
$SPLINETYPE
 70
     6
  9
$SPLINESEGS
 70
     8
  9
$ATTDIA
 70
     0
  9
$ATTREQ
 70
     1
  9
$HANDLING
 70
     1
  9
$HANDSEED
  5
291
  9
$SURFTAB1
 70
     6
  9
$SURFTAB2
 70
     6
  9
$SURFTYPE
 70
     6
  9
$SURFU
 70
     6
  9
$SURFV
 70
     6
  9
$UCSNAME
  2

  9
$UCSORG
 10
0.0
 20
0.0
 30
0.0
  9
$UCSXDIR
 10
1.0
 20
0.0
 30
0.0
  9
$UCSYDIR
 10
0.0
 20
1.0
 30
0.0
  9
$PUCSNAME
  2

  9
$PUCSORG
 10
0.0
 20
0.0
 30
0.0
  9
$PUCSXDIR
 10
1.0
 20
0.0
 30
0.0
  9
$PUCSYDIR
 10
0.0
 20
1.0
 30
0.0
  9
$USERI1
 70
     0
  9
$USERI2
 70
     0
  9
$USERI3
 70
     0
  9
$USERI4
 70
     0
  9
$USERI5
 70
     0
  9
$USERR1
 40
0.0
  9
$USERR2
 40
0.0
  9
$USERR3
 40
0.0
  9
$USERR4
 40
0.0
  9
$USERR5
 40
0.0
  9
$WORLDVIEW
 70
     1
  9
$SHADEDGE
 70
     3
  9
$SHADEDIF
 70
    70
  9
$TILEMODE
 70
     1
  9
$MAXACTVP
 70
    16
  9
$PLIMCHECK
 70
     0
  9
$PEXTMIN
 10
1.000000E+020
 20
1.000000E+020
 30
1.000000E+020
  9
$PEXTMAX
 10
-1.000000E+020
 20
-1.000000E+020
 30
-1.000000E+020
  9
$PLIMMIN
 10
0.0
 20
0.0
  9
$PLIMMAX
 10
12.0
 20
9.0
  9
$UNITMODE
 70
     0
  9
$VISRETAIN
 70
     0
  9
$PLINEGEN
 70
     0
  9
$PSLTSCALE
 70
     0
  0
ENDSEC
  0
SECTION
  2
TABLES
  0
TABLE
  2
VPORT
 70
     4
  0
VPORT
  2
*ACTIVE
 70
     0
 10
0.0
 20
0.0
 11
1.0
 21
1.0
 12
324.100572
 22
37.291695
 13
0.0
 23
0.0
 14
1.0
 24
1.0
 15
10.0
 25
10.0
 16
0.0
 26
0.0
 36
1.0
 17
0.0
 27
0.0
 37
0.0
 40
14.996726
 41
1.662319
 42
50.0
 43
0.0
 44
0.0
 50
0.0
 51
0.0
 71
     0
 72
   100
 73
     1
 74
     0
 75
     0
 76
     0
 77
     0
 78
     1
  0
ENDTAB
  0
TABLE
  2
LTYPE
 70
     1
  0
LTYPE
  2
CONTINUOUS
 70
     0
  3
Solid line
 72
    65
 73
     0
 40
0.0
  0
ENDTAB
  0
TABLE
  2
LAYER
 70
     2
  0
LAYER
  2
0
 70
     0
 62
     7
  6
CONTINUOUS
  0
LAYER
  2
DEFPOINTS
 70
     0
 62
     7
  6
CONTINUOUS
  0
ENDTAB
  0
TABLE
  2
STYLE
 70
     2
  0
STYLE
  2
STANDARD
 70
     0
 40
0.0
 41
1.0
 50
0.0
 71
     0
 42
0.1
  3
txt
  4

  0
STYLE
  2
ROMANC
 70
     0
 40
0.0
 41
1.0
 50
0.0
 71
     0
 42
0.1
  3
romanc
  4

  0
ENDTAB
  0
TABLE
  2
VIEW
 70
     0
  0
ENDTAB
  0
TABLE
  2
UCS
 70
     0
  0
ENDTAB
  0
TABLE
  2
APPID
 70
     1
  0
APPID
  2
ACAD
 70
     0
  0
ENDTAB
  0
TABLE
  2
DIMSTYLE
 70
     1
  0
DIMSTYLE
  2
MERITXELL
 70
     0
  3

  4

  5

  6

  7

 40
1.5
 41
0.1
 42
0.01
 43
7.0
 44
0.01
 45
0.0
 46
0.0
 47
0.0
 48
0.0
140
0.05
141
0.1
142
0.0
143
25.4
144
1.0
145
0.0
146
70.0
147
0.09
 71
     0
 72
     0
 73
     0
 74
     0
 75
     0
 76
     0
 77
     1
 78
     0
170
     0
171
     2
172
     1
173
     0
174
     1
175
     0
176
     0
177
     0
178
     0
  0
ENDTAB
  0
ENDSEC
  0
SECTION
  2
BLOCKS
  0
BLOCK
  8
0
  2
$MODEL_SPACE
 70
     0
 10
0.0
 20
0.0
 30
0.0
  3
$MODEL_SPACE
  1

  0
ENDBLK
  5
24
  8
0
  0
BLOCK
 67
     1
  8
0
  2
$PAPER_SPACE
 70
     0
 10
0.0
 20
0.0
 30
0.0
  3
$PAPER_SPACE
  1

  0
ENDBLK
  5
22
 67
     1
  8
0
  0
BLOCK
  8
0
  2
*D9
 70
     1
 10
0.0
 20
0.0
 30
0.0
  3
*D9
  1

  0
LINE
  5
262
  8
0
  6
BYBLOCK
 62
     0
 10
322.43418
 20
33.575387
 30
0.0
 11
322.43418
 21
33.230527
 31
0.0
  0
LINE
  5
263
  8
0
  6
BYBLOCK
 62
     0
 10
323.53418
 20
33.575387
 30
0.0
 11
323.53418
 21
33.230527
 31
0.0
  0
LINE
  5
264
  8
0
  6
BYBLOCK
 62
     0
 10
322.58418
 20
33.245527
 30
0.0
 11
323.38418
 21
33.245527
 31
0.0
  0
SOLID
  5
265
  8
0
  6
BYBLOCK
 62
     0
 10
322.58418
 20
33.270527
 30
0.0
 11
322.58418
 21
33.220527
 31
0.0
 12
322.43418
 22
33.245527
 32
0.0
 13
322.43418
 23
33.245527
 33
0.0
  0
SOLID
  5
266
  8
0
  6
BYBLOCK
 62
     0
 10
323.38418
 20
33.270527
 30
0.0
 11
323.38418
 21
33.220527
 31
0.0
 12
323.53418
 22
33.245527
 32
0.0
 13
323.53418
 23
33.245527
 33
0.0
  0
TEXT
  8
0
  40
0.075
  5
28D
  62
0
  72
0
  71
0
 10
322.834
 20
33.1878
 30
0.000000
  1
1.10
  7
ROMANC
  0
POINT
  5
268
  8
DEFPOINTS
  6
BYBLOCK
 62
     0
 10
322.43418
 20
33.590387
 30
0.0
  0
POINT
  5
269
  8
DEFPOINTS
  6
BYBLOCK
 62
     0
 10
323.53418
 20
33.590387
 30
0.0
  0
POINT
  5
26A
  8
DEFPOINTS
  6
BYBLOCK
 62
     0
 10
323.53418
 20
33.245527
 30
0.0
  0
ENDBLK
  5
26B
  8
0
  0
BLOCK
  8
0
  2
*D10
 70
     1
 10
0.0
 20
0.0
 30
0.0
  3
*D10
  1

  0
LINE
  5
255
  8
0
  6
BYBLOCK
 62
     0
 10
323.54918
 20
35.910387
 30
0.0
 11
323.999311
 21
35.910387
 31
0.0
  0
LINE
  5
256
  8
0
  6
BYBLOCK
 62
     0
 10
323.54918
 20
33.590387
 30
0.0
 11
323.999311
 21
33.590387
 31
0.0
  0
LINE
  5
257
  8
0
  6
BYBLOCK
 62
     0
 10
323.984311
 20
35.760387
 30
0.0
 11
323.984311
 21
33.740387
 31
0.0
  0
SOLID
  5
258
  8
0
  6
BYBLOCK
 62
     0
 10
323.959311
 20
35.760387
 30
0.0
 11
324.009311
 21
35.760387
 31
0.0
 12
323.984311
 22
35.910387
 32
0.0
 13
323.984311
 23
35.910387
 33
0.0
  0
SOLID
  5
259
  8
0
  6
BYBLOCK
 62
     0
 10
323.959311
 20
33.740387
 30
0.0
 11
324.009311
 21
33.740387
 31
0.0
 12
323.984311
 22
33.590387
 32
0.0
 13
323.984311
 23
33.590387
 33
0.0
  0
TEXT
  8
0
  40
0.075
  5
28E
  62
0
  72
0
  71
0
 10
323.759
 20
34.6176
 30
0.000000
  1
2.32
  7
ROMANC
  0
POINT
  5
25B
  8
DEFPOINTS
  6
BYBLOCK
 62
     0
 10
323.53418
 20
35.910387
 30
0.0
  0
POINT
  5
25C
  8
DEFPOINTS
  6
BYBLOCK
 62
     0
 10
323.53418
 20
33.590387
 30
0.0
  0
POINT
  5
25D
  8
DEFPOINTS
  6
BYBLOCK
 62
     0
 10
323.984311
 20
33.590387
 30
0.0
  0
ENDBLK
  5
25E
  8
0
  0
ENDSEC
  0
SECTION
  2
ENTITIES
  0
LINE
  5
27
  8
0
 10
329.348696
 20
29.863623
 30
0.0
 11
329.348696
 21
44.713623
 31
0.0
  0
LINE
  5
28
  8
0
 10
318.848696
 20
44.713623
 30
0.0
 11
318.848696
 21
29.863623
 31
0.0
  0
LINE
  5
29
  8
0
 10
318.848696
 20
29.863623
 30
0.0
 11
329.348696
 21
29.863623
 31
0.0
  0
TEXT
  5
2A
  8
0
 10
321.378668
 20
42.309482
 30
0.0
 40
0.3
  1
TIPUS   NT255A
  7
ROMANC
  0
TEXT
  5
2D
  8
0
 10
321.340746
 20
40.527599
 30
0.0
 40
0.3
  1
P = 68,4 dm
  7
ROMANC
  0
TEXT
  5
2E
  8
0
 10
321.391762
 20
41.225178
 30
0.0
 40
0.3
  1
S = 255 dm
  7
ROMANC
  0
TEXT
  5
2F
  8
0
 10
321.378668
 20
41.823768
 30
0.0
 40
0.3
  1
ESCALA  1:50
  7
ROMANC
  0
TEXT
  5
30
  8
0
 10
324.546276
 20
41.531094
 30
0.0
 40
0.1
  1
2
  7
ROMANC
  0
LINE
  5
31
  8
0
 10
329.348696
 20
44.713623
 30
0.0
 11
318.848696
 21
44.713623
 31
0.0
  0
LINE
  5
26E
  8
0
 10
322.41918
 20
33.575387
 30
0.0
 11
323.54918
 21
33.575387
 31
0.0
  0
LINE
  5
26F
  8
0
 10
323.54918
 20
33.575387
 30
0.0
 11
323.54918
 21
35.925387
 31
0.0
  0
LINE
  5
270
  8
0
 10
323.54918
 20
35.925387
 30
0.0
 11
322.41918
 21
35.925387
 31
0.0
  0
LINE
  5
271
  8
0
 10
322.41918
 20
35.925387
 30
0.0
 11
322.41918
 21
33.575387
 31
0.0
  0
LINE
  5
272
  8
0
 10
322.42668
 20
33.582887
 30
0.0
 11
323.54168
 21
33.582887
 31
0.0
  0
LINE
  5
273
  8
0
 10
323.54168
 20
33.582887
 30
0.0
 11
323.54168
 21
35.917887
 31
0.0
  0
LINE
  5
274
  8
0
 10
323.54168
 20
35.917887
 30
0.0
 11
322.42668
 21
35.917887
 31
0.0
  0
LINE
  5
275
  8
0
 10
322.42668
 20
35.917887
 30
0.0
 11
322.42668
 21
33.582887
 31
0.0
  0
LINE
  5
276
  8
0
  6
BYBLOCK
 62
     0
 10
323.54918
 20
35.910387
 30
0.0
 11
323.999311
 21
35.910387
 31
0.0
  0
LINE
  5
277
  8
0
  6
BYBLOCK
 62
     0
 10
323.54918
 20
33.590387
 30
0.0
 11
323.999311
 21
33.590387
 31
0.0
  0
LINE
  5
278
  8
0
  6
BYBLOCK
 62
     0
 10
323.984311
 20
35.760387
 30
0.0
 11
323.984311
 21
33.740387
 31
0.0
  0
SOLID
  5
279
  8
0
  6
BYBLOCK
 62
     0
 10
323.959311
 20
35.760387
 30
0.0
 11
324.009311
 21
35.760387
 31
0.0
 12
323.984311
 22
35.910387
 32
0.0
 13
323.984311
 23
35.910387
 33
0.0
  0
SOLID
  5
27A
  8
0
  6
BYBLOCK
 62
     0
 10
323.959311
 20
33.740387
 30
0.0
 11
324.009311
 21
33.740387
 31
0.0
 12
323.984311
 22
33.590387
 32
0.0
 13
323.984311
 23
33.590387
 33
0.0
  0
TEXT
  8
0
  40
0.075
  5
28F
  62
0
  72
0
  71
0
 10
323.759
 20
34.6176
 30
0.000000
  1
2.32
  7
ROMANC
  0
POINT
  5
27C
  8
DEFPOINTS
  6
BYBLOCK
 62
     0
 10
323.53418
 20
35.910387
 30
0.0
  0
POINT
  5
27D
  8
DEFPOINTS
  6
BYBLOCK
 62
     0
 10
323.53418
 20
33.590387
 30
0.0
  0
POINT
  5
27E
  8
DEFPOINTS
  6
BYBLOCK
 62
     0
 10
323.984311
 20
33.590387
 30
0.0
  0
LINE
  5
27F
  8
0
  6
BYBLOCK
 62
     0
 10
322.43418
 20
33.575387
 30
0.0
 11
322.43418
 21
33.230527
 31
0.0
  0
LINE
  5
280
  8
0
  6
BYBLOCK
 62
     0
 10
323.53418
 20
33.575387
 30
0.0
 11
323.53418
 21
33.230527
 31
0.0
  0
LINE
  5
281
  8
0
  6
BYBLOCK
 62
     0
 10
322.58418
 20
33.245527
 30
0.0
 11
323.38418
 21
33.245527
 31
0.0
  0
SOLID
  5
282
  8
0
  6
BYBLOCK
 62
     0
 10
322.58418
 20
33.270527
 30
0.0
 11
322.58418
 21
33.220527
 31
0.0
 12
322.43418
 22
33.245527
 32
0.0
 13
322.43418
 23
33.245527
 33
0.0
  0
SOLID
  5
283
  8
0
  6
BYBLOCK
 62
     0
 10
323.38418
 20
33.270527
 30
0.0
 11
323.38418
 21
33.220527
 31
0.0
 12
323.53418
 22
33.245527
 32
0.0
 13
323.53418
 23
33.245527
 33
0.0
  0
TEXT
  8
0
  40
0.075
  5
290
  62
0
  72
0
  71
0
 10
322.834
 20
33.1878
 30
0.000000
  1
1.10
  7
ROMANC
  0
POINT
  5
285
  8
DEFPOINTS
  6
BYBLOCK
 62
     0
 10
322.43418
 20
33.590387
 30
0.0
  0
POINT
  5
286
  8
DEFPOINTS
  6
BYBLOCK
 62
     0
 10
323.53418
 20
33.590387
 30
0.0
  0
POINT
  5
287
  8
DEFPOINTS
  6
BYBLOCK
 62
     0
 10
323.53418
 20
33.245527
 30
0.0
  0
LINE
  5
288
  8
0
 10
322.43418
 20
33.590387
 30
0.0
 11
323.53418
 21
33.590387
 31
0.0
  0
LINE
  5
289
  8
0
 10
323.53418
 20
33.590387
 30
0.0
 11
323.53418
 21
35.910387
 31
0.0
  0
LINE
  5
28A
  8
0
 10
323.53418
 20
35.910387
 30
0.0
 11
322.43418
 21
35.910387
 31
0.0
  0
LINE
  5
28B
  8
0
 10
322.43418
 20
35.910387
 30
0.0
 11
322.43418
 21
33.590387
 31
0.0
  0
ENDSEC
  0
EOF
