  0
SECTION
  2
HEADER
  9
$ACADVER
  1
AC1009
  9
$INSBASE
 10
191.316639
 20
-18.718751
 30
0.0
  9
$EXTMIN
 10
191.316639
 20
-18.718751
 30
0.0
  9
$EXTMAX
 10
201.816639
 20
-3.868751
 30
0.0
  9
$LIMMIN
 10
0.0
 20
0.0
  9
$LIMMAX
 10
410.0
 20
287.0
  9
$ORTHOMODE
 70
     0
  9
$REGENMODE
 70
     1
  9
$FILLMODE
 70
     1
  9
$QTEXTMODE
 70
     0
  9
$MIRRTEXT
 70
     1
  9
$DRAGMODE
 70
     2
  9
$LTSCALE
 40
25.0
  9
$OSMODE
 70
    32
  9
$ATTMODE
 70
     1
  9
$TEXTSIZE
 40
0.1
  9
$TRACEWID
 40
1.0
  9
$TEXTSTYLE
  7
ROMANC
  9
$CLAYER
  8
0
  9
$CELTYPE
  6
BYLAYER
  9
$CECOLOR
 62
   256
  9
$DIMSCALE
 40
0.0
  9
$DIMASZ
 40
0.0
  9
$DIMEXO
 40
0.1
  9
$DIMDLI
 40
7.0
  9
$DIMRND
 40
0.0
  9
$DIMDLE
 40
0.0
  9
$DIMEXE
 40
1.8
  9
$DIMTP
 40
0.0
  9
$DIMTM
 40
0.0
  9
$DIMTXT
 40
0.03
  9
$DIMCEN
 40
1.5
  9
$DIMTSZ
 40
1.0
  9
$DIMTOL
 70
     0
  9
$DIMLIM
 70
     0
  9
$DIMTIH
 70
     0
  9
$DIMTOH
 70
     0
  9
$DIMSE1
 70
     0
  9
$DIMSE2
 70
     0
  9
$DIMTAD
 70
     0
  9
$DIMZIN
 70
     0
  9
$DIMBLK
  1

  9
$DIMASO
 70
     1
  9
$DIMSHO
 70
     0
  9
$DIMPOST
  1

  9
$DIMAPOST
  1

  9
$DIMALT
 70
     0
  9
$DIMALTD
 70
     2
  9
$DIMALTF
 40
25.4
  9
$DIMLFAC
 40
1.0
  9
$DIMTOFL
 70
     1
  9
$DIMTVP
 40
0.0
  9
$DIMTIX
 70
     1
  9
$DIMSOXD
 70
     0
  9
$DIMSAH
 70
     0
  9
$DIMBLK1
  1

  9
$DIMBLK2
  1

  9
$DIMSTYLE
  2
*UNNAMED
  9
$DIMCLRD
 70
     0
  9
$DIMCLRE
 70
     0
  9
$DIMCLRT
 70
     0
  9
$DIMTFAC
 40
116.666667
  9
$DIMGAP
 40
0.09
  9
$LUNITS
 70
     2
  9
$LUPREC
 70
     2
  9
$SKETCHINC
 40
1.0
  9
$FILLETRAD
 40
0.0
  9
$AUNITS
 70
     0
  9
$AUPREC
 70
     0
  9
$MENU
  1
acad
  9
$ELEVATION
 40
0.0
  9
$PELEVATION
 40
0.0
  9
$THICKNESS
 40
0.0
  9
$LIMCHECK
 70
     0
  9
$BLIPMODE
 70
     0
  9
$CHAMFERA
 40
0.0
  9
$CHAMFERB
 40
0.0
  9
$SKPOLY
 70
     0
  9
$TDCREATE
 40
2449967.540536690
  9
$TDUPDATE
 40
2450721.545333796
  9
$TDINDWG
 40
0.0018784722
  9
$TDUSRTIMER
 40
0.0018784722
  9
$USRTIMER
 70
     1
  9
$ANGBASE
 50
0.0
  9
$ANGDIR
 70
     0
  9
$PDMODE
 70
     0
  9
$PDSIZE
 40
0.0
  9
$PLINEWID
 40
0.0
  9
$COORDS
 70
     2
  9
$SPLFRAME
 70
     0
  9
$SPLINETYPE
 70
     6
  9
$SPLINESEGS
 70
     8
  9
$ATTDIA
 70
     0
  9
$ATTREQ
 70
     1
  9
$HANDLING
 70
     0
  9
$HANDSEED
  5
0
  9
$SURFTAB1
 70
     6
  9
$SURFTAB2
 70
     6
  9
$SURFTYPE
 70
     6
  9
$SURFU
 70
     6
  9
$SURFV
 70
     6
  9
$UCSNAME
  2

  9
$UCSORG
 10
0.0
 20
0.0
 30
0.0
  9
$UCSXDIR
 10
1.0
 20
0.0
 30
0.0
  9
$UCSYDIR
 10
0.0
 20
1.0
 30
0.0
  9
$PUCSNAME
  2

  9
$PUCSORG
 10
0.0
 20
0.0
 30
0.0
  9
$PUCSXDIR
 10
1.0
 20
0.0
 30
0.0
  9
$PUCSYDIR
 10
0.0
 20
1.0
 30
0.0
  9
$USERI1
 70
     0
  9
$USERI2
 70
     0
  9
$USERI3
 70
     0
  9
$USERI4
 70
     0
  9
$USERI5
 70
     0
  9
$USERR1
 40
0.0
  9
$USERR2
 40
0.0
  9
$USERR3
 40
0.0
  9
$USERR4
 40
0.0
  9
$USERR5
 40
0.0
  9
$WORLDVIEW
 70
     1
  9
$SHADEDGE
 70
     3
  9
$SHADEDIF
 70
    70
  9
$TILEMODE
 70
     1
  9
$MAXACTVP
 70
    16
  9
$PINSBASE
 10
0.0
 20
0.0
 30
0.0
  9
$PLIMCHECK
 70
     0
  9
$PEXTMIN
 10
1.000000E+20
 20
1.000000E+20
 30
1.000000E+20
  9
$PEXTMAX
 10
-1.000000E+20
 20
-1.000000E+20
 30
-1.000000E+20
  9
$PLIMMIN
 10
0.0
 20
0.0
  9
$PLIMMAX
 10
12.0
 20
9.0
  9
$UNITMODE
 70
     0
  9
$VISRETAIN
 70
     0
  9
$PLINEGEN
 70
     0
  9
$PSLTSCALE
 70
     0
  9
$TREEDEPTH
 70
  3020
  9
$DWGCODEPAGE
  3
iso8859-1
  0
ENDSEC
  0
SECTION
  2
TABLES
  0
TABLE
  2
VPORT
 70
     2
  0
VPORT
  2
*ACTIVE
 70
     0
 10
0.0
 20
0.0
 11
1.0
 21
1.0
 12
203.630977
 22
-11.074954
 13
0.0
 23
0.0
 14
1.0
 24
1.0
 15
10.0
 25
10.0
 16
0.0
 26
0.0
 36
1.0
 17
0.0
 27
0.0
 37
0.0
 40
15.287595
 41
1.611024
 42
50.0
 43
0.0
 44
0.0
 50
0.0
 51
0.0
 71
     0
 72
   100
 73
     1
 74
     0
 75
     0
 76
     0
 77
     0
 78
     2
  0
ENDTAB
  0
TABLE
  2
LTYPE
 70
     1
  0
LTYPE
  2
CONTINUOUS
 70
    64
  3
Solid line
 72
    65
 73
     0
 40
0.0
  0
ENDTAB
  0
TABLE
  2
LAYER
 70
     2
  0
LAYER
  2
0
 70
    64
 62
     7
  6
CONTINUOUS
  0
LAYER
  2
MESURA
 70
    64
 62
     7
  6
CONTINUOUS
  0
ENDTAB
  0
TABLE
  2
STYLE
 70
     2
  0
STYLE
  2
STANDARD
 70
     0
 40
0.0
 41
1.0
 50
0.0
 71
     0
 42
0.1
  3
txt
  4

  0
STYLE
  2
ROMANC
 70
    64
 40
0.0
 41
1.0
 50
0.0
 71
     0
 42
0.1
  3
romanc
  4

  0
ENDTAB
  0
TABLE
  2
VIEW
 70
     0
  0
ENDTAB
  0
TABLE
  2
UCS
 70
     0
  0
ENDTAB
  0
TABLE
  2
APPID
 70
     1
  0
APPID
  2
ACAD
 70
    64
  0
ENDTAB
  0
TABLE
  2
DIMSTYLE
 70
     0
  0
ENDTAB
  0
ENDSEC
  0
SECTION
  2
BLOCKS
  0
ENDSEC
  0
SECTION
  2
ENTITIES
  0
LINE
  8
MESURA
  6
BYBLOCK
 62
     0
 10
194.817234
 20
-11.899744
 30
0.0
 11
195.017234
 21
-11.699744
 31
0.0
  0
LINE
  8
MESURA
  6
BYBLOCK
 62
     0
 10
196.217234
 20
-11.899744
 30
0.0
 11
196.417234
 21
-11.699744
 31
0.0
  0
LINE
  8
0
 10
194.917234
 20
-13.020947
 30
0.0
 11
194.917234
 21
-11.799744
 31
0.0
  0
LINE
  8
0
 10
196.317234
 20
-13.020947
 30
0.0
 11
196.317234
 21
-11.799744
 31
0.0
  0
LINE
  8
0
 10
191.316639
 20
-3.868751
 30
0.0
 11
191.316639
 21
-18.718751
 31
0.0
  0
LINE
  8
0
 10
201.816639
 20
-18.718751
 30
0.0
 11
201.816639
 21
-3.868751
 31
0.0
  0
LINE
  8
0
 10
196.826571
 20
-14.520947
 30
0.0
 11
197.535559
 21
-14.520947
 31
0.0
  0
LINE
  8
0
 10
195.617234
 20
-12.270947
 30
0.0
 11
197.535559
 21
-12.270947
 31
0.0
  0
LINE
  8
0
 10
191.316639
 20
-18.718751
 30
0.0
 11
201.816639
 21
-18.718751
 31
0.0
  0
POLYLINE
  8
0
 66
     1
 10
0.0
 20
0.0
 30
0.0
 70
     1
  0
VERTEX
  8
0
 10
195.257342
 20
-14.130947
 30
0.0
 42
0.081746
  0
VERTEX
  8
0
 10
195.285131
 20
-14.279783
 30
0.0
 42
0.093047
  0
VERTEX
  8
0
 10
195.362221
 20
-14.410375
 30
0.0
 42
0.102819
 70
     2
 50
311.185925
  0
VERTEX
  8
0
 10
195.481397
 20
-14.500419
 30
0.0
 42
0.110985
 50
311.185925
  0
VERTEX
  8
0
 10
195.617234
 20
-14.530947
 30
0.0
 42
0.110985
  0
VERTEX
  8
0
 10
195.753072
 20
-14.500419
 30
0.0
 42
0.102819
  0
VERTEX
  8
0
 10
195.872248
 20
-14.410375
 30
0.0
 42
0.093047
 70
     2
 50
48.814075
  0
VERTEX
  8
0
 10
195.949338
 20
-14.279783
 30
0.0
 42
0.081746
 50
48.814075
  0
VERTEX
  8
0
 10
195.977127
 20
-14.130947
 30
0.0
  0
VERTEX
  8
0
 10
196.226367
 20
-14.130947
 30
0.0
  0
VERTEX
  8
0
 10
196.327234
 20
-13.021402
 30
0.0
 42
0.092629
  0
VERTEX
  8
0
 10
196.272572
 20
-12.727962
 30
0.0
 42
0.095798
  0
VERTEX
  8
0
 10
196.11952
 20
-12.483794
 30
0.0
 42
0.100885
 70
     2
 50
133.025066
  0
VERTEX
  8
0
 10
195.886789
 20
-12.318075
 30
0.0
 42
0.104803
 50
133.025066
  0
VERTEX
  8
0
 10
195.617234
 20
-12.260947
 30
0.0
 42
0.104803
  0
VERTEX
  8
0
 10
195.34768
 20
-12.318075
 30
0.0
 42
0.100885
  0
VERTEX
  8
0
 10
195.114949
 20
-12.483794
 30
0.0
 42
0.095798
 70
     2
 50
226.974934
  0
VERTEX
  8
0
 10
194.961897
 20
-12.727962
 30
0.0
 42
0.092629
 50
226.974934
  0
VERTEX
  8
0
 10
194.907235
 20
-13.021402
 30
0.0
  0
VERTEX
  8
0
 10
195.008102
 20
-14.130947
 30
0.0
  0
SEQEND
  8
0
  0
POLYLINE
  8
0
 66
     1
 10
0.0
 20
0.0
 30
0.0
 70
     1
  0
VERTEX
  8
0
 10
195.277347
 20
-14.110947
 30
0.0
 42
0.092797
  0
VERTEX
  8
0
 10
195.303934
 20
-14.272968
 30
0.0
 42
0.093047
  0
VERTEX
  8
0
 10
195.377273
 20
-14.397205
 30
0.0
 42
0.102819
 70
     2
 50
311.185925
  0
VERTEX
  8
0
 10
195.489955
 20
-14.482342
 30
0.0
 42
0.110985
 50
311.185925
  0
VERTEX
  8
0
 10
195.617234
 20
-14.510947
 30
0.0
 42
0.110985
  0
VERTEX
  8
0
 10
195.744514
 20
-14.482342
 30
0.0
 42
0.102819
  0
VERTEX
  8
0
 10
195.857196
 20
-14.397205
 30
0.0
 42
0.093047
 70
     2
 50
48.814075
  0
VERTEX
  8
0
 10
195.930535
 20
-14.272968
 30
0.0
 42
0.092797
 50
48.814075
  0
VERTEX
  8
0
 10
195.957122
 20
-14.110947
 30
0.0
  0
VERTEX
  8
0
 10
196.208102
 20
-14.110947
 30
0.0
  0
VERTEX
  8
0
 10
196.307234
 20
-13.020495
 30
0.0
 42
0.092344
  0
VERTEX
  8
0
 10
196.253917
 20
-12.735174
 30
0.0
 42
0.095798
  0
VERTEX
  8
0
 10
196.104899
 20
-12.49744
 30
0.0
 42
0.100885
 70
     2
 50
133.025066
  0
VERTEX
  8
0
 10
195.878676
 20
-12.336355
 30
0.0
 42
0.104803
 50
133.025066
  0
VERTEX
  8
0
 10
195.617234
 20
-12.280947
 30
0.0
 42
0.104803
  0
VERTEX
  8
0
 10
195.355793
 20
-12.336355
 30
0.0
 42
0.100885
  0
VERTEX
  8
0
 10
195.12957
 20
-12.49744
 30
0.0
 42
0.095798
 70
     2
 50
226.974934
  0
VERTEX
  8
0
 10
194.980552
 20
-12.735174
 30
0.0
 42
0.092344
 50
226.974934
  0
VERTEX
  8
0
 10
194.927235
 20
-13.020495
 30
0.0
  0
VERTEX
  8
0
 10
195.026367
 20
-14.110947
 30
0.0
  0
SEQEND
  8
0
  0
POLYLINE
  8
0
 66
     1
 10
0.0
 20
0.0
 30
0.0
 70
     1
  0
VERTEX
  8
0
 10
195.267234
 20
-14.120947
 30
0.0
 42
0.087147
  0
VERTEX
  8
0
 10
195.294532
 20
-14.276376
 30
0.0
 42
0.093047
  0
VERTEX
  8
0
 10
195.369747
 20
-14.40379
 30
0.0
 42
0.102819
 70
     2
 50
311.185925
  0
VERTEX
  8
0
 10
195.485676
 20
-14.491381
 30
0.0
 42
0.110985
 50
311.185925
  0
VERTEX
  8
0
 10
195.617234
 20
-14.520947
 30
0.0
 42
0.110985
  0
VERTEX
  8
0
 10
195.748793
 20
-14.491381
 30
0.0
 42
0.102819
  0
VERTEX
  8
0
 10
195.864722
 20
-14.40379
 30
0.0
 42
0.093047
 70
     2
 50
48.814075
  0
VERTEX
  8
0
 10
195.939937
 20
-14.276376
 30
0.0
 42
0.087147
 50
48.814075
  0
VERTEX
  8
0
 10
195.967234
 20
-14.120947
 30
0.0
  0
VERTEX
  8
0
 10
196.217234
 20
-14.120947
 30
0.0
  0
VERTEX
  8
0
 10
196.317234
 20
-13.020947
 30
0.0
 42
0.092488
  0
VERTEX
  8
0
 10
196.263245
 20
-12.731568
 30
0.0
 42
0.095798
  0
VERTEX
  8
0
 10
196.112209
 20
-12.490617
 30
0.0
 42
0.100885
 70
     2
 50
133.025066
  0
VERTEX
  8
0
 10
195.882733
 20
-12.327215
 30
0.0
 42
0.104803
 50
133.025066
  0
VERTEX
  8
0
 10
195.617234
 20
-12.270947
 30
0.0
 42
0.104803
  0
VERTEX
  8
0
 10
195.351736
 20
-12.327215
 30
0.0
 42
0.100885
  0
VERTEX
  8
0
 10
195.12226
 20
-12.490617
 30
0.0
 42
0.095798
 70
     2
 50
226.974934
  0
VERTEX
  8
0
 10
194.971224
 20
-12.731568
 30
0.0
 42
0.092488
 50
226.974934
  0
VERTEX
  8
0
 10
194.917234
 20
-13.020947
 30
0.0
  0
VERTEX
  8
0
 10
195.017234
 20
-14.120947
 30
0.0
  0
SEQEND
  8
0
  0
TEXT
  8
0
 10
195.380682
 20
-15.406157
 30
0.0
 40
0.1
  1
1.2
  7
ROMANC
  0
TEXT
  8
0
 10
195.492512
 20
-14.931188
 30
0.0
 40
0.1
  1
0.7
  7
ROMANC
  0
LINE
  8
MESURA
  6
BYBLOCK
 62
     0
 10
195.167234
 20
-14.786993
 30
0.0
 11
195.367234
 21
-14.586993
 31
0.0
  0
LINE
  8
MESURA
  6
BYBLOCK
 62
     0
 10
195.867234
 20
-14.786993
 30
0.0
 11
196.067234
 21
-14.586993
 31
0.0
  0
LINE
  8
MESURA
  6
BYBLOCK
 62
     0
 10
194.917234
 20
-15.194396
 30
0.0
 11
195.117234
 21
-14.994396
 31
0.0
  0
LINE
  8
MESURA
  6
BYBLOCK
 62
     0
 10
196.117234
 20
-15.194396
 30
0.0
 11
196.317234
 21
-14.994396
 31
0.0
  0
LINE
  8
MESURA
  6
BYBLOCK
 62
     0
 10
196.726571
 20
-13.120947
 30
0.0
 11
196.926571
 21
-12.920947
 31
0.0
  0
LINE
  8
MESURA
  6
BYBLOCK
 62
     0
 10
196.726571
 20
-14.220947
 30
0.0
 11
196.926571
 21
-14.020947
 31
0.0
  0
LINE
  8
MESURA
  6
BYBLOCK
 62
     0
 10
196.726571
 20
-14.620947
 30
0.0
 11
196.926571
 21
-14.420947
 31
0.0
  0
LINE
  8
0
 10
195.017234
 20
-14.120947
 30
0.0
 11
195.017234
 21
-15.094396
 31
0.0
  0
LINE
  8
0
 10
196.217234
 20
-14.120947
 30
0.0
 11
196.217234
 21
-15.094396
 31
0.0
  0
LINE
  8
0
 10
195.267234
 20
-14.120947
 30
0.0
 11
195.267234
 21
-14.686993
 31
0.0
  0
LINE
  8
0
 10
195.967234
 20
-14.120947
 30
0.0
 11
195.967234
 21
-14.686993
 31
0.0
  0
LINE
  8
0
 10
195.617234
 20
-14.520947
 30
0.0
 11
196.826571
 21
-14.520947
 31
0.0
  0
LINE
  8
0
 10
196.217234
 20
-14.120947
 30
0.0
 11
196.826571
 21
-14.120947
 31
0.0
  0
LINE
  8
0
 10
196.317234
 20
-13.020947
 30
0.0
 11
196.826571
 21
-13.020947
 31
0.0
  0
LINE
  8
0
 10
195.017234
 20
-15.094396
 30
0.0
 11
196.217234
 21
-15.094396
 31
0.0
  0
LINE
  8
0
 10
195.267234
 20
-14.686993
 30
0.0
 11
195.967234
 21
-14.686993
 31
0.0
  0
LINE
  8
0
 10
196.826571
 20
-12.270947
 30
0.0
 11
196.826571
 21
-14.520947
 31
0.0
  0
POLYLINE
  8
0
 66
     1
 10
0.0
 20
0.0
 30
0.0
  0
VERTEX
  8
0
 10
194.917234
 20
-13.020947
 30
0.0
 42
0.092488
  0
VERTEX
  8
0
 10
194.917234
 20
-13.020947
 30
0.0
 42
0.092488
  0
SEQEND
  8
0
  0
TEXT
  8
0
 10
197.030176
 20
-14.288583
 30
0.0
 40
0.1
  1
0.4
  7
ROMANC
  0
TEXT
  8
0
 10
196.974262
 20
-13.618039
 30
0.0
 40
0.1
  1
1.10
  7
ROMANC
  0
TEXT
  8
0
 10
197.701157
 20
-13.198949
 30
0.0
 40
0.1
  1
2.25
  7
ROMANC
  0
LINE
  8
MESURA
  6
BYBLOCK
 62
     0
 10
197.435559
 20
-14.620947
 30
0.0
 11
197.635559
 21
-14.420947
 31
0.0
  0
LINE
  8
MESURA
  6
BYBLOCK
 62
     0
 10
197.435559
 20
-12.370947
 30
0.0
 11
197.635559
 21
-12.170947
 31
0.0
  0
LINE
  8
0
 10
197.535559
 20
-12.270947
 30
0.0
 11
197.535559
 21
-14.520947
 31
0.0
  0
TEXT
  8
0
 10
193.861286
 20
-7.840071
 30
0.0
 40
0.3
  1
P = 137.7 dm
  7
ROMANC
  0
LINE
  8
0
 10
201.816639
 20
-3.868751
 30
0.0
 11
191.316639
 21
-3.868751
 31
0.0
  0
TEXT
  8
0
 10
193.846611
 20
-6.272892
 30
0.0
 40
0.3
  1
TIPUS   NT247
  7
ROMANC
  0
TEXT
  8
0
 10
193.859705
 20
-7.357196
 30
0.0
 40
0.3
  1
S =  247 dm
  7
ROMANC
  0
TEXT
  8
0
 10
193.846611
 20
-6.758606
 30
0.0
 40
0.3
  1
ESCALA  1:50
  7
ROMANC
  0
TEXT
  8
0
 10
195.436597
 20
-11.550527
 30
0.0
 40
0.1
  1
1.4
  7
ROMANC
  0
LINE
  8
0
 10
194.917234
 20
-11.799744
 30
0.0
 11
196.317234
 21
-11.799744
 31
0.0
  0
TEXT
  8
0
 10
197.367536
 20
-7.05128
 30
0.0
 40
0.1
  1
2
  7
ROMANC
  0
LINE
  8
MESURA
  6
BYBLOCK
 62
     0
 10
196.726571
 20
-12.370947
 30
0.0
 11
196.926571
 21
-12.170947
 31
0.0
  0
TEXT
  8
0
 10
196.933419
 20
-12.689436
 30
0.0
 40
0.1
  1
0.75
  7
ROMANC
  0
ENDSEC
  0
EOF
