  0
SECTION
  2
HEADER
  9
$ACADVER
  1
AC1009
  9
$INSBASE
 10
0.0
 20
0.0
 30
0.0
  9
$EXTMIN
 10
67.623298
 20
-27.532393
 30
0.0
  9
$EXTMAX
 10
351.54669
 20
44.747444
 30
0.0
  9
$LIMMIN
 10
0.0
 20
0.0
  9
$LIMMAX
 10
410.0
 20
287.0
  9
$ORTHOMODE
 70
     0
  9
$REGENMODE
 70
     1
  9
$FILLMODE
 70
     1
  9
$QTEXTMODE
 70
     0
  9
$MIRRTEXT
 70
     1
  9
$DRAGMODE
 70
     2
  9
$LTSCALE
 40
25.0
  9
$OSMODE
 70
    32
  9
$ATTMODE
 70
     1
  9
$TEXTSIZE
 40
0.1
  9
$TRACEWID
 40
1.0
  9
$TEXTSTYLE
  7
ROMANC
  9
$CLAYER
  8
0
  9
$CELTYPE
  6
BYLAYER
  9
$CECOLOR
 62
   256
  9
$DIMSCALE
 40
1.5
  9
$DIMASZ
 40
0.1
  9
$DIMEXO
 40
0.01
  9
$DIMDLI
 40
7.0
  9
$DIMRND
 40
0.0
  9
$DIMDLE
 40
0.0
  9
$DIMEXE
 40
0.01
  9
$DIMTP
 40
0.0
  9
$DIMTM
 40
0.0
  9
$DIMTXT
 40
0.05
  9
$DIMCEN
 40
0.1
  9
$DIMTSZ
 40
0.0
  9
$DIMTOL
 70
     0
  9
$DIMLIM
 70
     0
  9
$DIMTIH
 70
     0
  9
$DIMTOH
 70
     0
  9
$DIMSE1
 70
     0
  9
$DIMSE2
 70
     0
  9
$DIMTAD
 70
     1
  9
$DIMZIN
 70
     0
  9
$DIMBLK
  1

  9
$DIMASO
 70
     1
  9
$DIMSHO
 70
     0
  9
$DIMPOST
  1

  9
$DIMAPOST
  1

  9
$DIMALT
 70
     0
  9
$DIMALTD
 70
     2
  9
$DIMALTF
 40
25.4
  9
$DIMLFAC
 40
1.0
  9
$DIMTOFL
 70
     1
  9
$DIMTVP
 40
0.0
  9
$DIMTIX
 70
     1
  9
$DIMSOXD
 70
     0
  9
$DIMSAH
 70
     0
  9
$DIMBLK1
  1

  9
$DIMBLK2
  1

  9
$DIMSTYLE
  2
SILVIA
  9
$DIMCLRD
 70
     0
  9
$DIMCLRE
 70
     0
  9
$DIMCLRT
 70
     0
  9
$DIMTFAC
 40
70.0
  9
$DIMGAP
 40
0.09
  9
$LUNITS
 70
     2
  9
$LUPREC
 70
     2
  9
$SKETCHINC
 40
1.0
  9
$FILLETRAD
 40
0.0
  9
$AUNITS
 70
     0
  9
$AUPREC
 70
     0
  9
$MENU
  1
acad
  9
$ELEVATION
 40
0.0
  9
$PELEVATION
 40
0.0
  9
$THICKNESS
 40
0.0
  9
$LIMCHECK
 70
     0
  9
$BLIPMODE
 70
     0
  9
$CHAMFERA
 40
0.0
  9
$CHAMFERB
 40
0.0
  9
$SKPOLY
 70
     0
  9
$TDCREATE
 40
2450298.597425347
  9
$TDUPDATE
 40
2450298.597425347
  9
$TDINDWG
 40
0.0000000000
  9
$TDUSRTIMER
 40
0.0000000000
  9
$USRTIMER
 70
     1
  9
$ANGBASE
 50
0.0
  9
$ANGDIR
 70
     0
  9
$PDMODE
 70
     0
  9
$PDSIZE
 40
0.0
  9
$PLINEWID
 40
0.0
  9
$COORDS
 70
     2
  9
$SPLFRAME
 70
     0
  9
$SPLINETYPE
 70
     6
  9
$SPLINESEGS
 70
     8
  9
$ATTDIA
 70
     0
  9
$ATTREQ
 70
     1
  9
$HANDLING
 70
     0
  9
$HANDSEED
  5
0
  9
$SURFTAB1
 70
     6
  9
$SURFTAB2
 70
     6
  9
$SURFTYPE
 70
     6
  9
$SURFU
 70
     6
  9
$SURFV
 70
     6
  9
$UCSNAME
  2

  9
$UCSORG
 10
0.0
 20
0.0
 30
0.0
  9
$UCSXDIR
 10
1.0
 20
0.0
 30
0.0
  9
$UCSYDIR
 10
0.0
 20
1.0
 30
0.0
  9
$PUCSNAME
  2

  9
$PUCSORG
 10
0.0
 20
0.0
 30
0.0
  9
$PUCSXDIR
 10
1.0
 20
0.0
 30
0.0
  9
$PUCSYDIR
 10
0.0
 20
1.0
 30
0.0
  9
$USERI1
 70
     0
  9
$USERI2
 70
     0
  9
$USERI3
 70
     0
  9
$USERI4
 70
     0
  9
$USERI5
 70
     0
  9
$USERR1
 40
0.0
  9
$USERR2
 40
0.0
  9
$USERR3
 40
0.0
  9
$USERR4
 40
0.0
  9
$USERR5
 40
0.0
  9
$WORLDVIEW
 70
     1
  9
$SHADEDGE
 70
     3
  9
$SHADEDIF
 70
    70
  9
$TILEMODE
 70
     1
  9
$MAXACTVP
 70
    16
  9
$PINSBASE
 10
0.0
 20
0.0
 30
0.0
  9
$PLIMCHECK
 70
     0
  9
$PEXTMIN
 10
1.000000E+20
 20
1.000000E+20
 30
1.000000E+20
  9
$PEXTMAX
 10
-1.000000E+20
 20
-1.000000E+20
 30
-1.000000E+20
  9
$PLIMMIN
 10
0.0
 20
0.0
  9
$PLIMMAX
 10
12.0
 20
9.0
  9
$UNITMODE
 70
     0
  9
$VISRETAIN
 70
     0
  9
$PLINEGEN
 70
     0
  9
$PSLTSCALE
 70
     0
  9
$TREEDEPTH
 70
  3020
  9
$DWGCODEPAGE
  3
iso8859-1
  0
ENDSEC
  0
SECTION
  2
TABLES
  0
TABLE
  2
VPORT
 70
     1
  0
VPORT
  2
*ACTIVE
 70
     0
 10
0.0
 20
0.0
 11
1.0
 21
1.0
 12
299.655865
 22
2.34124
 13
0.0
 23
0.0
 14
1.0
 24
1.0
 15
10.0
 25
10.0
 16
0.0
 26
0.0
 36
1.0
 17
0.0
 27
0.0
 37
0.0
 40
27.943037
 41
1.639742
 42
50.0
 43
0.0
 44
0.0
 50
0.0
 51
0.0
 71
     0
 72
   100
 73
     1
 74
     0
 75
     0
 76
     0
 77
     0
 78
     1
  0
ENDTAB
  0
TABLE
  2
LTYPE
 70
     1
  0
LTYPE
  2
CONTINUOUS
 70
    64
  3
Solid line
 72
    65
 73
     0
 40
0.0
  0
ENDTAB
  0
TABLE
  2
LAYER
 70
     2
  0
LAYER
  2
0
 70
    64
 62
     7
  6
CONTINUOUS
  0
LAYER
  2
DEFPOINTS
 70
    64
 62
     7
  6
CONTINUOUS
  0
ENDTAB
  0
TABLE
  2
STYLE
 70
     2
  0
STYLE
  2
STANDARD
 70
     0
 40
0.0
 41
1.0
 50
0.0
 71
     0
 42
0.1
  3
txt
  4

  0
STYLE
  2
ROMANC
 70
    64
 40
0.0
 41
1.0
 50
0.0
 71
     0
 42
0.1
  3
romanc
  4

  0
ENDTAB
  0
TABLE
  2
VIEW
 70
     0
  0
ENDTAB
  0
TABLE
  2
UCS
 70
     0
  0
ENDTAB
  0
TABLE
  2
APPID
 70
     1
  0
APPID
  2
ACAD
 70
    64
  0
ENDTAB
  0
TABLE
  2
DIMSTYLE
 70
     1
  0
DIMSTYLE
  2
SILVIA
 70
    64
  3

  4

  5

  6

  7

 40
1.5
 41
0.1
 42
0.01
 43
7.0
 44
0.01
 45
0.0
 46
0.0
 47
0.0
 48
0.0
140
0.05
141
0.1
142
0.0
143
25.4
144
1.0
145
0.0
146
70.0
147
0.09
 71
     0
 72
     0
 73
     0
 74
     0
 75
     0
 76
     0
 77
     1
 78
     0
170
     0
171
     2
172
     1
173
     0
174
     1
175
     0
176
     0
177
     0
178
     0
  0
ENDTAB
  0
ENDSEC
  0
SECTION
  2
BLOCKS
  0
BLOCK
  8
0
  2
*D0
 70
    65
 10
0.0
 20
0.0
 30
0.0
  3
*D
  0
LINE
  8
0
  6
BYBLOCK
 62
     0
 10
297.415485
 20
1.781887
 30
0.0
 11
297.415485
 21
1.429359
 31
0.0
  0
LINE
  8
0
  6
BYBLOCK
 62
     0
 10
298.645485
 20
1.781887
 30
0.0
 11
298.645485
 21
1.429359
 31
0.0
  0
LINE
  8
0
  6
BYBLOCK
 62
     0
 10
297.565485
 20
1.444359
 30
0.0
 11
298.495485
 21
1.444359
 31
0.0
  0
SOLID
  8
0
  6
BYBLOCK
 62
     0
 10
297.565485
 20
1.469359
 30
0.0
 11
297.565485
 21
1.419359
 31
0.0
 12
297.415485
 22
1.444359
 32
0.0
 13
297.415485
 23
1.444359
 33
0.0
  0
SOLID
  8
0
  6
BYBLOCK
 62
     0
 10
298.495485
 20
1.469359
 30
0.0
 11
298.495485
 21
1.419359
 31
0.0
 12
298.645485
 22
1.444359
 32
0.0
 13
298.645485
 23
1.444359
 33
0.0
  0
TEXT
  8
0
  6
BYBLOCK
 62
     0
 10
297.900128
 20
1.481859
 30
0.0
 40
0.075
  1
1.25
  7
ROMANC
 72
     1
 11
298.030485
 21
1.519359
 31
0.0
 73
     2
  0
POINT
  8
DEFPOINTS
  6
BYBLOCK
 62
     0
 10
297.415485
 20
1.796887
 30
0.0
  0
POINT
  8
DEFPOINTS
  6
BYBLOCK
 62
     0
 10
298.645485
 20
1.796887
 30
0.0
  0
POINT
  8
DEFPOINTS
  6
BYBLOCK
 62
     0
 10
298.645485
 20
1.444359
 30
0.0
  0
ENDBLK
  8
0
  0
BLOCK
  8
0
  2
*D1
 70
    65
 10
0.0
 20
0.0
 30
0.0
  3
*D
  0
LINE
  8
0
  6
BYBLOCK
 62
     0
 10
298.660485
 20
1.796887
 30
0.0
 11
299.007928
 21
1.796887
 31
0.0
  0
LINE
  8
0
  6
BYBLOCK
 62
     0
 10
298.660485
 20
3.581535
 30
0.0
 11
299.007928
 21
3.581535
 31
0.0
  0
LINE
  8
0
  6
BYBLOCK
 62
     0
 10
298.992928
 20
1.946887
 30
0.0
 11
298.992928
 21
3.431535
 31
0.0
  0
SOLID
  8
0
  6
BYBLOCK
 62
     0
 10
298.967928
 20
1.946887
 30
0.0
 11
299.017928
 21
1.946887
 31
0.0
 12
298.992928
 22
1.796887
 32
0.0
 13
298.992928
 23
1.796887
 33
0.0
  0
SOLID
  8
0
  6
BYBLOCK
 62
     0
 10
298.967928
 20
3.431535
 30
0.0
 11
299.017928
 21
3.431535
 31
0.0
 12
298.992928
 22
3.581535
 32
0.0
 13
298.992928
 23
3.581535
 33
0.0
  0
TEXT
  8
0
  6
BYBLOCK
 62
     0
 10
298.955428
 20
2.558853
 30
0.0
 40
0.075
  1
1.80
 50
90.0
  7
ROMANC
 72
     1
 11
298.917928
 21
2.689211
 31
0.0
 73
     2
  0
POINT
  8
DEFPOINTS
  6
BYBLOCK
 62
     0
 10
298.645485
 20
1.796887
 30
0.0
  0
POINT
  8
DEFPOINTS
  6
BYBLOCK
 62
     0
 10
298.645485
 20
3.581535
 30
0.0
  0
POINT
  8
DEFPOINTS
  6
BYBLOCK
 62
     0
 10
298.992928
 20
3.581535
 30
0.0
  0
ENDBLK
  8
0
  0
BLOCK
  8
0
  2
*D2
 70
    65
 10
0.0
 20
0.0
 30
0.0
  3
*D
  0
LINE
  8
0
  6
BYBLOCK
 62
     0
 10
298.660485
 20
3.581535
 30
0.0
 11
299.007928
 21
3.581535
 31
0.0
  0
LINE
  8
0
  6
BYBLOCK
 62
     0
 10
298.370485
 20
3.786887
 30
0.0
 11
299.007928
 21
3.786887
 31
0.0
  0
LINE
  8
0
  6
BYBLOCK
 62
     0
 10
298.992928
 20
3.431535
 30
0.0
 11
298.992928
 21
3.281535
 31
0.0
  0
LINE
  8
0
  6
BYBLOCK
 62
     0
 10
298.992928
 20
3.936887
 30
0.0
 11
298.992928
 21
4.086887
 31
0.0
  0
SOLID
  8
0
  6
BYBLOCK
 62
     0
 10
298.967928
 20
3.431535
 30
0.0
 11
299.017928
 21
3.431535
 31
0.0
 12
298.992928
 22
3.581535
 32
0.0
 13
298.992928
 23
3.581535
 33
0.0
  0
SOLID
  8
0
  6
BYBLOCK
 62
     0
 10
298.967928
 20
3.936887
 30
0.0
 11
299.017928
 21
3.936887
 31
0.0
 12
298.992928
 22
3.786887
 32
0.0
 13
298.992928
 23
3.786887
 33
0.0
  0
LINE
  8
0
  6
BYBLOCK
 62
     0
 10
298.992928
 20
3.581535
 30
0.0
 11
298.992928
 21
3.786887
 31
0.0
  0
TEXT
  8
0
  6
BYBLOCK
 62
     0
 10
298.955428
 20
3.559211
 30
0.0
 40
0.075
  1
0.20
 50
90.0
  7
ROMANC
 72
     1
 11
298.917928
 21
3.684211
 31
0.0
 73
     2
  0
POINT
  8
DEFPOINTS
  6
BYBLOCK
 62
     0
 10
298.645485
 20
3.581535
 30
0.0
  0
POINT
  8
DEFPOINTS
  6
BYBLOCK
 62
     0
 10
298.355485
 20
3.786887
 30
0.0
  0
POINT
  8
DEFPOINTS
  6
BYBLOCK
 62
     0
 10
298.992928
 20
3.786887
 30
0.0
  0
ENDBLK
  8
0
  0
BLOCK
  8
0
  2
*D3
 70
    65
 10
0.0
 20
0.0
 30
0.0
  3
*D
  0
LINE
  8
0
  6
BYBLOCK
 62
     0
 10
298.352457
 20
3.791887
 30
0.0
 11
298.352457
 21
3.929163
 31
0.0
  0
LINE
  8
0
  6
BYBLOCK
 62
     0
 10
298.665485
 20
3.607238
 30
0.0
 11
298.665485
 21
3.929163
 31
0.0
  0
LINE
  8
0
  6
BYBLOCK
 62
     0
 10
298.202457
 20
3.914163
 30
0.0
 11
298.052457
 21
3.914163
 31
0.0
  0
LINE
  8
0
  6
BYBLOCK
 62
     0
 10
298.815485
 20
3.914163
 30
0.0
 11
298.965485
 21
3.914163
 31
0.0
  0
SOLID
  8
0
  6
BYBLOCK
 62
     0
 10
298.202457
 20
3.939163
 30
0.0
 11
298.202457
 21
3.889163
 31
0.0
 12
298.352457
 22
3.914163
 32
0.0
 13
298.352457
 23
3.914163
 33
0.0
  0
SOLID
  8
0
  6
BYBLOCK
 62
     0
 10
298.815485
 20
3.939163
 30
0.0
 11
298.815485
 21
3.889163
 31
0.0
 12
298.665485
 22
3.914163
 32
0.0
 13
298.665485
 23
3.914163
 33
0.0
  0
LINE
  8
0
  6
BYBLOCK
 62
     0
 10
298.352457
 20
3.914163
 30
0.0
 11
298.665485
 21
3.914163
 31
0.0
  0
TEXT
  8
0
  6
BYBLOCK
 62
     0
 10
298.383971
 20
3.951663
 30
0.0
 40
0.075
  1
0.30
  7
ROMANC
 72
     1
 11
298.508971
 21
3.989163
 31
0.0
 73
     2
  0
POINT
  8
DEFPOINTS
  6
BYBLOCK
 62
     0
 10
298.352457
 20
3.776887
 30
0.0
  0
POINT
  8
DEFPOINTS
  6
BYBLOCK
 62
     0
 10
298.665485
 20
3.592238
 30
0.0
  0
POINT
  8
DEFPOINTS
  6
BYBLOCK
 62
     0
 10
298.665485
 20
3.914163
 30
0.0
  0
ENDBLK
  8
0
  0
ENDSEC
  0
SECTION
  2
ENTITIES
  0
LINE
  8
0
 10
303.95607
 20
11.365797
 30
0.0
 11
293.45607
 21
11.365797
 31
0.0
  0
LINE
  8
0
 10
293.45607
 20
-3.484203
 30
0.0
 11
303.95607
 21
-3.484203
 31
0.0
  0
LINE
  8
0
 10
293.45607
 20
11.365797
 30
0.0
 11
293.45607
 21
-3.484203
 31
0.0
  0
TEXT
  8
0
 10
295.94812
 20
7.179773
 30
0.0
 40
0.3
  1
P = 62.2 dm
  7
ROMANC
  0
TEXT
  8
0
 10
295.999137
 20
7.877352
 30
0.0
 40
0.3
  1
S = 244  dm
  7
ROMANC
  0
TEXT
  8
0
 10
295.986043
 20
8.961656
 30
0.0
 40
0.3
  1
TIPUS   NT244
  7
ROMANC
  0
TEXT
  8
0
 10
295.986043
 20
8.475942
 30
0.0
 40
0.3
  1
ESCALA  1:50
  7
ROMANC
  0
TEXT
  8
0
 10
299.759489
 20
8.183268
 30
0.0
 40
0.1
  1
2
  7
ROMANC
  0
LINE
  8
0
 10
303.95607
 20
-3.484203
 30
0.0
 11
303.95607
 21
11.365797
 31
0.0
  0
LINE
  8
0
  6
BYBLOCK
 62
     0
 10
298.758337
 20
3.701748
 30
0.0
 11
298.758337
 21
3.839024
 31
0.0
  0
LINE
  8
0
  6
BYBLOCK
 62
     0
 10
299.071365
 20
3.517099
 30
0.0
 11
299.071365
 21
3.839024
 31
0.0
  0
LINE
  8
0
  6
BYBLOCK
 62
     0
 10
298.608337
 20
3.824024
 30
0.0
 11
298.458337
 21
3.824024
 31
0.0
  0
LINE
  8
0
  6
BYBLOCK
 62
     0
 10
299.221365
 20
3.824024
 30
0.0
 11
299.371365
 21
3.824024
 31
0.0
  0
SOLID
  8
0
  6
BYBLOCK
 62
     0
 10
298.608337
 20
3.849024
 30
0.0
 11
298.608337
 21
3.799024
 31
0.0
 12
298.758337
 22
3.824024
 32
0.0
 13
298.758337
 23
3.824024
 33
0.0
  0
SOLID
  8
0
  6
BYBLOCK
 62
     0
 10
299.221365
 20
3.849024
 30
0.0
 11
299.221365
 21
3.799024
 31
0.0
 12
299.071365
 22
3.824024
 32
0.0
 13
299.071365
 23
3.824024
 33
0.0
  0
LINE
  8
0
  6
BYBLOCK
 62
     0
 10
298.758337
 20
3.824024
 30
0.0
 11
299.071365
 21
3.824024
 31
0.0
  0
TEXT
  8
0
  6
BYBLOCK
 62
     0
 10
298.789851
 20
3.861524
 30
0.0
 40
0.075
  1
0.30
  7
ROMANC
 72
     1
 11
298.914851
 21
3.899024
 31
0.0
 73
     2
  0
POINT
  8
DEFPOINTS
  6
BYBLOCK
 62
     0
 10
298.758337
 20
3.686748
 30
0.0
  0
POINT
  8
DEFPOINTS
  6
BYBLOCK
 62
     0
 10
299.071365
 20
3.502099
 30
0.0
  0
POINT
  8
DEFPOINTS
  6
BYBLOCK
 62
     0
 10
299.071365
 20
3.824024
 30
0.0
  0
LINE
  8
0
  6
BYBLOCK
 62
     0
 10
299.066365
 20
3.491396
 30
0.0
 11
299.413808
 21
3.491396
 31
0.0
  0
LINE
  8
0
  6
BYBLOCK
 62
     0
 10
298.776365
 20
3.696748
 30
0.0
 11
299.413808
 21
3.696748
 31
0.0
  0
LINE
  8
0
  6
BYBLOCK
 62
     0
 10
299.398808
 20
3.341396
 30
0.0
 11
299.398808
 21
3.191396
 31
0.0
  0
LINE
  8
0
  6
BYBLOCK
 62
     0
 10
299.398808
 20
3.846748
 30
0.0
 11
299.398808
 21
3.996748
 31
0.0
  0
SOLID
  8
0
  6
BYBLOCK
 62
     0
 10
299.373808
 20
3.341396
 30
0.0
 11
299.423808
 21
3.341396
 31
0.0
 12
299.398808
 22
3.491396
 32
0.0
 13
299.398808
 23
3.491396
 33
0.0
  0
SOLID
  8
0
  6
BYBLOCK
 62
     0
 10
299.373808
 20
3.846748
 30
0.0
 11
299.423808
 21
3.846748
 31
0.0
 12
299.398808
 22
3.696748
 32
0.0
 13
299.398808
 23
3.696748
 33
0.0
  0
LINE
  8
0
  6
BYBLOCK
 62
     0
 10
299.398808
 20
3.491396
 30
0.0
 11
299.398808
 21
3.696748
 31
0.0
  0
TEXT
  8
0
  6
BYBLOCK
 62
     0
 10
299.361308
 20
3.469072
 30
0.0
 40
0.075
  1
0.20
 50
90.0
  7
ROMANC
 72
     1
 11
299.323808
 21
3.594072
 31
0.0
 73
     2
  0
POINT
  8
DEFPOINTS
  6
BYBLOCK
 62
     0
 10
299.051365
 20
3.491396
 30
0.0
  0
POINT
  8
DEFPOINTS
  6
BYBLOCK
 62
     0
 10
298.761365
 20
3.696748
 30
0.0
  0
POINT
  8
DEFPOINTS
  6
BYBLOCK
 62
     0
 10
299.398808
 20
3.696748
 30
0.0
  0
LINE
  8
0
  6
BYBLOCK
 62
     0
 10
299.066365
 20
1.706748
 30
0.0
 11
299.413808
 21
1.706748
 31
0.0
  0
LINE
  8
0
  6
BYBLOCK
 62
     0
 10
299.066365
 20
3.491396
 30
0.0
 11
299.413808
 21
3.491396
 31
0.0
  0
LINE
  8
0
  6
BYBLOCK
 62
     0
 10
299.398808
 20
1.856748
 30
0.0
 11
299.398808
 21
3.341396
 31
0.0
  0
SOLID
  8
0
  6
BYBLOCK
 62
     0
 10
299.373808
 20
1.856748
 30
0.0
 11
299.423808
 21
1.856748
 31
0.0
 12
299.398808
 22
1.706748
 32
0.0
 13
299.398808
 23
1.706748
 33
0.0
  0
SOLID
  8
0
  6
BYBLOCK
 62
     0
 10
299.373808
 20
3.341396
 30
0.0
 11
299.423808
 21
3.341396
 31
0.0
 12
299.398808
 22
3.491396
 32
0.0
 13
299.398808
 23
3.491396
 33
0.0
  0
TEXT
  8
0
  6
BYBLOCK
 62
     0
 10
299.361308
 20
2.468715
 30
0.0
 40
0.075
  1
1.80
 50
90.0
  7
ROMANC
 72
     1
 11
299.323808
 21
2.599072
 31
0.0
 73
     2
  0
POINT
  8
DEFPOINTS
  6
BYBLOCK
 62
     0
 10
299.051365
 20
1.706748
 30
0.0
  0
POINT
  8
DEFPOINTS
  6
BYBLOCK
 62
     0
 10
299.051365
 20
3.491396
 30
0.0
  0
POINT
  8
DEFPOINTS
  6
BYBLOCK
 62
     0
 10
299.398808
 20
3.491396
 30
0.0
  0
LINE
  8
0
  6
BYBLOCK
 62
     0
 10
297.821365
 20
1.691748
 30
0.0
 11
297.821365
 21
1.33922
 31
0.0
  0
LINE
  8
0
  6
BYBLOCK
 62
     0
 10
299.051365
 20
1.691748
 30
0.0
 11
299.051365
 21
1.33922
 31
0.0
  0
LINE
  8
0
  6
BYBLOCK
 62
     0
 10
297.971365
 20
1.35422
 30
0.0
 11
298.901365
 21
1.35422
 31
0.0
  0
SOLID
  8
0
  6
BYBLOCK
 62
     0
 10
297.971365
 20
1.37922
 30
0.0
 11
297.971365
 21
1.32922
 31
0.0
 12
297.821365
 22
1.35422
 32
0.0
 13
297.821365
 23
1.35422
 33
0.0
  0
SOLID
  8
0
  6
BYBLOCK
 62
     0
 10
298.901365
 20
1.37922
 30
0.0
 11
298.901365
 21
1.32922
 31
0.0
 12
299.051365
 22
1.35422
 32
0.0
 13
299.051365
 23
1.35422
 33
0.0
  0
TEXT
  8
0
  6
BYBLOCK
 62
     0
 10
298.306008
 20
1.39172
 30
0.0
 40
0.075
  1
1.25
  7
ROMANC
 72
     1
 11
298.436365
 21
1.42922
 31
0.0
 73
     2
  0
POINT
  8
DEFPOINTS
  6
BYBLOCK
 62
     0
 10
297.821365
 20
1.706748
 30
0.0
  0
POINT
  8
DEFPOINTS
  6
BYBLOCK
 62
     0
 10
299.051365
 20
1.706748
 30
0.0
  0
POINT
  8
DEFPOINTS
  6
BYBLOCK
 62
     0
 10
299.051365
 20
1.35422
 30
0.0
  0
LINE
  8
0
 10
297.821365
 20
1.706748
 30
0.0
 11
299.051365
 21
1.706748
 31
0.0
  0
LINE
  8
0
 10
299.051365
 20
1.706748
 30
0.0
 11
299.051365
 21
3.491396
 31
0.0
  0
LINE
  8
0
 10
299.051365
 20
3.491396
 30
0.0
 11
298.758337
 21
3.686748
 31
0.0
  0
LINE
  8
0
 10
298.758337
 20
3.686748
 30
0.0
 11
298.114393
 21
3.686748
 31
0.0
  0
LINE
  8
0
 10
298.114393
 20
3.686748
 30
0.0
 11
297.821365
 21
3.491396
 31
0.0
  0
LINE
  8
0
 10
297.821365
 20
3.491396
 30
0.0
 11
297.821365
 21
1.706748
 31
0.0
  0
LINE
  8
0
 10
297.801365
 20
1.686748
 30
0.0
 11
299.071365
 21
1.686748
 31
0.0
  0
LINE
  8
0
 10
299.071365
 20
1.686748
 30
0.0
 11
299.071365
 21
3.502099
 31
0.0
  0
LINE
  8
0
 10
299.071365
 20
3.502099
 30
0.0
 11
298.764393
 21
3.706748
 31
0.0
  0
LINE
  8
0
 10
298.764393
 20
3.706748
 30
0.0
 11
298.108337
 21
3.706748
 31
0.0
  0
LINE
  8
0
 10
298.108337
 20
3.706748
 30
0.0
 11
297.801365
 21
3.502099
 31
0.0
  0
LINE
  8
0
 10
297.801365
 20
3.502099
 30
0.0
 11
297.801365
 21
1.686748
 31
0.0
  0
LINE
  8
0
 10
297.811365
 20
1.696748
 30
0.0
 11
299.061365
 21
1.696748
 31
0.0
  0
LINE
  8
0
 10
299.061365
 20
1.696748
 30
0.0
 11
299.061365
 21
3.496748
 31
0.0
  0
LINE
  8
0
 10
299.061365
 20
3.496748
 30
0.0
 11
298.761365
 21
3.696748
 31
0.0
  0
LINE
  8
0
 10
298.761365
 20
3.696748
 30
0.0
 11
298.111365
 21
3.696748
 31
0.0
  0
LINE
  8
0
 10
298.111365
 20
3.696748
 30
0.0
 11
297.811365
 21
3.496748
 31
0.0
  0
LINE
  8
0
 10
297.811365
 20
3.496748
 30
0.0
 11
297.811365
 21
1.696748
 31
0.0
  0
ENDSEC
  0
EOF
