  0
SECTION
  2
HEADER
  9
$ACADVER
  1
AC1009
  9
$INSBASE
 10
0.0
 20
0.0
 30
0.0
  9
$EXTMIN
 10
281.396
 20
29.897
 30
0.0
  9
$EXTMAX
 10
291.896
 20
44.747
 30
0.0
  9
$LIMMIN
 10
280.396
 20
28.897
  9
$LIMMAX
 10
292.896
 20
43.747
  9
$ORTHOMODE
 70
     0
  9
$REGENMODE
 70
     1
  9
$FILLMODE
 70
     1
  9
$QTEXTMODE
 70
     0
  9
$MIRRTEXT
 70
     1
  9
$DRAGMODE
 70
     2
  9
$LTSCALE
 40
1.0
  9
$OSMODE
 70
     0
  9
$ATTMODE
 70
     1
  9
$TEXTSIZE
 40
0.2
  9
$TRACEWID
 40
0.05
  9
$TEXTSTYLE
  7
STANDARD
  9
$CLAYER
  8
0
  9
$CELTYPE
  6
BYLAYER
  9
$CECOLOR
 62
   256
  9
$DIMSCALE
 40
1.0
  9
$DIMASZ
 40
0.18
  9
$DIMEXO
 40
0.0625
  9
$DIMDLI
 40
0.38
  9
$DIMRND
 40
0.0
  9
$DIMDLE
 40
0.0
  9
$DIMEXE
 40
0.18
  9
$DIMTP
 40
0.0
  9
$DIMTM
 40
0.0
  9
$DIMTXT
 40
0.18
  9
$DIMCEN
 40
0.09
  9
$DIMTSZ
 40
0.0
  9
$DIMTOL
 70
     0
  9
$DIMLIM
 70
     0
  9
$DIMTIH
 70
     1
  9
$DIMTOH
 70
     1
  9
$DIMSE1
 70
     0
  9
$DIMSE2
 70
     0
  9
$DIMTAD
 70
     0
  9
$DIMZIN
 70
     0
  9
$DIMBLK
  1

  9
$DIMASO
 70
     1
  9
$DIMSHO
 70
     1
  9
$DIMPOST
  1

  9
$DIMAPOST
  1

  9
$DIMALT
 70
     0
  9
$DIMALTD
 70
     2
  9
$DIMALTF
 40
25.4
  9
$DIMLFAC
 40
1.0
  9
$DIMTOFL
 70
     0
  9
$DIMTVP
 40
0.0
  9
$DIMTIX
 70
     0
  9
$DIMSOXD
 70
     0
  9
$DIMSAH
 70
     0
  9
$DIMBLK1
  1

  9
$DIMBLK2
  1

  9
$DIMSTYLE
  2
*UNNAMED
  9
$DIMCLRD
 70
     0
  9
$DIMCLRE
 70
     0
  9
$DIMCLRT
 70
     0
  9
$DIMTFAC
 40
1.0
  9
$DIMGAP
 40
0.09
  9
$LUNITS
 70
     2
  9
$LUPREC
 70
     4
  9
$SKETCHINC
 40
0.1
  9
$FILLETRAD
 40
0.0
  9
$AUNITS
 70
     0
  9
$AUPREC
 70
     0
  9
$MENU
  1
acad
  9
$ELEVATION
 40
0.0
  9
$PELEVATION
 40
0.0
  9
$THICKNESS
 40
0.0
  9
$LIMCHECK
 70
     0
  9
$BLIPMODE
 70
     1
  9
$CHAMFERA
 40
0.0
  9
$CHAMFERB
 40
0.0
  9
$SKPOLY
 70
     0
  9
$TDCREATE
 40
2448315.373408102
  9
$TDUPDATE
 40
2448315.373408102
  9
$TDINDWG
 40
0.0000000000
  9
$TDUSRTIMER
 40
0.0000000000
  9
$USRTIMER
 70
     1
  9
$ANGBASE
 50
0.0
  9
$ANGDIR
 70
     0
  9
$PDMODE
 70
     0
  9
$PDSIZE
 40
0.0
  9
$PLINEWID
 40
0.0
  9
$COORDS
 70
     0
  9
$SPLFRAME
 70
     0
  9
$SPLINETYPE
 70
     6
  9
$SPLINESEGS
 70
     8
  9
$ATTDIA
 70
     0
  9
$ATTREQ
 70
     1
  9
$HANDLING
 70
     0
  9
$HANDSEED
  5
0
  9
$SURFTAB1
 70
     6
  9
$SURFTAB2
 70
     6
  9
$SURFTYPE
 70
     6
  9
$SURFU
 70
     6
  9
$SURFV
 70
     6
  9
$UCSNAME
  2

  9
$UCSORG
 10
0.0
 20
0.0
 30
0.0
  9
$UCSXDIR
 10
1.0
 20
0.0
 30
0.0
  9
$UCSYDIR
 10
0.0
 20
1.0
 30
0.0
  9
$PUCSNAME
  2

  9
$PUCSORG
 10
0.0
 20
0.0
 30
0.0
  9
$PUCSXDIR
 10
1.0
 20
0.0
 30
0.0
  9
$PUCSYDIR
 10
0.0
 20
1.0
 30
0.0
  9
$USERI1
 70
     0
  9
$USERI2
 70
     0
  9
$USERI3
 70
     0
  9
$USERI4
 70
     0
  9
$USERI5
 70
     0
  9
$USERR1
 40
0.0
  9
$USERR2
 40
0.0
  9
$USERR3
 40
0.0
  9
$USERR4
 40
0.0
  9
$USERR5
 40
0.0
  9
$WORLDVIEW
 70
     1
  9
$SHADEDGE
 70
     3
  9
$SHADEDIF
 70
    70
  9
$TILEMODE
 70
     1
  9
$MAXACTVP
 70
    16
  9
$PINSBASE
 10
0.0
 20
0.0
 30
0.0
  9
$PLIMCHECK
 70
     0
  9
$PEXTMIN
 10
1.000000E+20
 20
1.000000E+20
 30
1.000000E+20
  9
$PEXTMAX
 10
-1.000000E+20
 20
-1.000000E+20
 30
-1.000000E+20
  9
$PLIMMIN
 10
0.0
 20
0.0
  9
$PLIMMAX
 10
12.0
 20
9.0
  9
$UNITMODE
 70
     0
  9
$VISRETAIN
 70
     0
  9
$PLINEGEN
 70
     0
  9
$PSLTSCALE
 70
     0
  9
$TREEDEPTH
 70
  3020
  9
$DWGCODEPAGE
  3
iso8859-1
  0
ENDSEC
  0
SECTION
  2
TABLES
  0
TABLE
  2
VPORT
 70
     2
  0
VPORT
  2
*ACTIVE
 70
     0
 10
0.0
 20
0.0
 11
1.0
 21
1.0
 12
293.35785
 22
37.322
 13
0.0
 23
0.0
 14
1.0
 24
1.0
 15
10.0
 25
10.0
 16
0.0
 26
0.0
 36
1.0
 17
0.0
 27
0.0
 37
0.0
 40
14.85
 41
1.611024
 42
50.0
 43
0.0
 44
0.0
 50
0.0
 51
0.0
 71
     0
 72
   100
 73
     1
 74
     0
 75
     0
 76
     0
 77
     0
 78
     0
  0
ENDTAB
  0
TABLE
  2
LTYPE
 70
     1
  0
LTYPE
  2
CONTINUOUS
 70
    64
  3
Solid line
 72
    65
 73
     0
 40
0.0
  0
ENDTAB
  0
TABLE
  2
LAYER
 70
     7
  0
LAYER
  2
0
 70
    64
 62
     7
  6
CONTINUOUS
  0
LAYER
  2
1
 70
    64
 62
     7
  6
CONTINUOUS
  0
LAYER
  2
7
 70
    64
 62
     7
  6
CONTINUOUS
  0
LAYER
  2
8
 70
    64
 62
     7
  6
CONTINUOUS
  0
LAYER
  2
9
 70
    64
 62
     7
  6
CONTINUOUS
  0
LAYER
  2
22
 70
    64
 62
     7
  6
CONTINUOUS
  0
LAYER
  2
25
 70
    64
 62
     7
  6
CONTINUOUS
  0
ENDTAB
  0
TABLE
  2
STYLE
 70
     2
  0
STYLE
  2
STANDARD
 70
     0
 40
0.0
 41
1.0
 50
0.0
 71
     0
 42
3.5
  3
txt
  4

  0
STYLE
  2
ROMANC
 70
     0
 40
0.0
 41
1.0
 50
0.0
 71
     0
 42
0.2
  3
ROMANC
  4

  0
ENDTAB
  0
TABLE
  2
VIEW
 70
     0
  0
ENDTAB
  0
TABLE
  2
UCS
 70
     0
  0
ENDTAB
  0
TABLE
  2
APPID
 70
     1
  0
APPID
  2
ACAD
 70
    64
  0
ENDTAB
  0
TABLE
  2
DIMSTYLE
 70
     0
  0
ENDTAB
  0
ENDSEC
  0
SECTION
  2
BLOCKS
  0
ENDSEC
  0
SECTION
  2
ENTITIES
  0
TEXT
  8
0
  6
CONTINUOUS
 10
287.033681
 20
41.348921
 30
0.0
 40
0.1
  1
2
  7
ROMANC
  0
TEXT
  8
0
  6
CONTINUOUS
 10
283.926
 20
41.768
 30
0.0
 40
0.3
  1
ESCALA  1:50
  7
ROMANC
  0
POLYLINE
  8
0
  6
CONTINUOUS
 66
     1
 10
0.0
 20
0.0
 30
0.0
 70
     1
  0
VERTEX
  8
0
  6
CONTINUOUS
 10
281.396
 20
44.747
 30
0.0
  0
VERTEX
  8
0
  6
CONTINUOUS
 10
291.896
 20
44.747
 30
0.0
  0
VERTEX
  8
0
  6
CONTINUOUS
 10
291.896
 20
29.897
 30
0.0
  0
VERTEX
  8
0
  6
CONTINUOUS
 10
281.396
 20
29.897
 30
0.0
  0
SEQEND
  8
0
  0
POLYLINE
  8
1
  6
CONTINUOUS
 66
     1
 10
0.0
 20
0.0
 30
0.0
  0
VERTEX
  8
1
  6
CONTINUOUS
 10
286.942
 20
34.74
 30
0.0
 42
0.057393
  0
VERTEX
  8
1
  6
CONTINUOUS
 10
286.935712
 20
34.79302
 30
0.0
 42
0.05201
  0
VERTEX
  8
1
  6
CONTINUOUS
 10
286.918148
 20
34.843528
 30
0.0
 42
0.048714
  0
VERTEX
  8
1
  6
CONTINUOUS
 10
286.887445
 20
34.894772
 30
0.0
 42
0.039203
  0
VERTEX
  8
1
  6
CONTINUOUS
 10
286.848218
 20
34.94
 30
0.0
 42
0.036209
  0
VERTEX
  8
1
  6
CONTINUOUS
 10
286.795327
 20
34.985016
 30
0.0
 42
0.029023
  0
VERTEX
  8
1
  6
CONTINUOUS
 10
286.736975
 20
35.022843
 30
0.0
 42
0.027178
  0
VERTEX
  8
1
  6
CONTINUOUS
 10
286.666098
 20
35.058244
 30
0.0
 42
0.022921
  0
VERTEX
  8
1
  6
CONTINUOUS
 10
286.592
 20
35.08641
 30
0.0
 42
0.021918
  0
VERTEX
  8
1
  6
CONTINUOUS
 10
286.508429
 20
35.109902
 30
0.0
 42
0.019755
  0
VERTEX
  8
1
  6
CONTINUOUS
 10
286.423173
 20
35.12637
 30
0.0
 42
0.019316
  0
VERTEX
  8
1
  6
CONTINUOUS
 10
286.332848
 20
35.136622
 30
0.0
 42
0.018658
  0
VERTEX
  8
1
  6
CONTINUOUS
 10
286.242
 20
35.14
 30
0.0
 42
0.018658
  0
VERTEX
  8
1
  6
CONTINUOUS
 10
286.151152
 20
35.136622
 30
0.0
 42
0.019316
  0
VERTEX
  8
1
  6
CONTINUOUS
 10
286.060827
 20
35.12637
 30
0.0
 42
0.019755
  0
VERTEX
  8
1
  6
CONTINUOUS
 10
285.975571
 20
35.109902
 30
0.0
 42
0.021918
  0
VERTEX
  8
1
  6
CONTINUOUS
 10
285.892
 20
35.08641
 30
0.0
 42
0.022921
  0
VERTEX
  8
1
  6
CONTINUOUS
 10
285.817902
 20
35.058244
 30
0.0
 42
0.027178
  0
VERTEX
  8
1
  6
CONTINUOUS
 10
285.747025
 20
35.022843
 30
0.0
 42
0.029023
  0
VERTEX
  8
1
  6
CONTINUOUS
 10
285.688673
 20
34.985016
 30
0.0
 42
0.036209
  0
VERTEX
  8
1
  6
CONTINUOUS
 10
285.635782
 20
34.94
 30
0.0
 42
0.039203
  0
VERTEX
  8
1
  6
CONTINUOUS
 10
285.596555
 20
34.894772
 30
0.0
 42
0.048714
  0
VERTEX
  8
1
  6
CONTINUOUS
 10
285.565852
 20
34.843528
 30
0.0
 42
0.05201
  0
VERTEX
  8
1
  6
CONTINUOUS
 10
285.548288
 20
34.79302
 30
0.0
 42
0.057393
  0
VERTEX
  8
1
  6
CONTINUOUS
 10
285.542
 20
34.74
 30
0.0
  0
SEQEND
  8
0
  0
LINE
  8
1
  6
CONTINUOUS
 10
285.542
 20
33.34
 30
0.0
 11
285.542
 21
34.74
 31
0.0
  0
TEXT
  8
0
  6
CONTINUOUS
 10
283.922
 20
40.529
 30
0.0
 40
0.3
  1
P = 60 dm
  7
ROMANC
  0
TEXT
  8
0
  6
CONTINUOUS
 10
283.945
 20
41.099
 30
0.0
 40
0.3
  1
S = 243 dm
  7
ROMANC
  0
TEXT
  8
0
  6
CONTINUOUS
 10
283.926
 20
42.381
 30
0.0
 40
0.3
  1
TIPUS   NT243B
  7
ROMANC
  0
LINE
  8
1
  6
CONTINUOUS
 10
286.042
 20
33.34
 30
0.0
 11
285.542
 21
33.34
 31
0.0
  0
TEXT
  8
1
  6
CONTINUOUS
 10
285.673
 20
33.042
 30
0.0
 40
0.075
  1
0.50
  7
ROMANC
  0
LINE
  8
1
  6
CONTINUOUS
 10
285.392
 20
33.08
 30
0.0
 11
285.542
 21
33.08
 31
0.0
  0
LINE
  8
1
  6
CONTINUOUS
 10
286.192
 20
33.08
 30
0.0
 11
286.042
 21
33.08
 31
0.0
  0
LINE
  8
1
  6
CONTINUOUS
 10
285.58
 20
33.099
 30
0.0
 11
285.504
 21
33.061
 31
0.0
  0
LINE
  8
1
  6
CONTINUOUS
 10
286.004
 20
33.061
 30
0.0
 11
286.08
 21
33.099
 31
0.0
  0
LINE
  8
1
  6
CONTINUOUS
 10
285.542
 20
33.302
 30
0.0
 11
285.542
 21
33.042
 31
0.0
  0
LINE
  8
1
  6
CONTINUOUS
 10
286.042
 20
33.302
 30
0.0
 11
286.042
 21
33.042
 31
0.0
  0
LINE
  8
1
  6
CONTINUOUS
 10
286.942
 20
33.34
 30
0.0
 11
286.442
 21
33.34
 31
0.0
  0
TEXT
  8
1
  6
CONTINUOUS
 10
286.573
 20
33.042
 30
0.0
 40
0.075
  1
0.50
  7
ROMANC
  0
LINE
  8
1
  6
CONTINUOUS
 10
286.292
 20
33.08
 30
0.0
 11
286.442
 21
33.08
 31
0.0
  0
LINE
  8
1
  6
CONTINUOUS
 10
287.092
 20
33.08
 30
0.0
 11
286.942
 21
33.08
 31
0.0
  0
LINE
  8
1
  6
CONTINUOUS
 10
286.48
 20
33.099
 30
0.0
 11
286.404
 21
33.061
 31
0.0
  0
LINE
  8
1
  6
CONTINUOUS
 10
286.904
 20
33.061
 30
0.0
 11
286.98
 21
33.099
 31
0.0
  0
LINE
  8
1
  6
CONTINUOUS
 10
286.442
 20
33.302
 30
0.0
 11
286.442
 21
33.042
 31
0.0
  0
LINE
  8
1
  6
CONTINUOUS
 10
286.942
 20
33.302
 30
0.0
 11
286.942
 21
33.042
 31
0.0
  0
ARC
  8
1
  6
CONTINUOUS
 10
286.242
 20
33.49
 30
0.0
 40
0.25
 50
216.869897
 51
323.130103
  0
TEXT
  8
1
  6
CONTINUOUS
 10
286.12
 20
32.874
 30
0.0
 40
0.075
  1
0.40
  7
ROMANC
  0
LINE
  8
1
  6
CONTINUOUS
 10
285.892
 20
32.912
 30
0.0
 11
286.042
 21
32.912
 31
0.0
  0
LINE
  8
1
  6
CONTINUOUS
 10
286.592
 20
32.912
 30
0.0
 11
286.442
 21
32.912
 31
0.0
  0
LINE
  8
1
  6
CONTINUOUS
 10
286.08
 20
32.931
 30
0.0
 11
286.004
 21
32.893
 31
0.0
  0
LINE
  8
1
  6
CONTINUOUS
 10
286.404
 20
32.893
 30
0.0
 11
286.48
 21
32.931
 31
0.0
  0
LINE
  8
1
  6
CONTINUOUS
 10
286.042
 20
33.302
 30
0.0
 11
286.042
 21
32.874
 31
0.0
  0
LINE
  8
1
  6
CONTINUOUS
 10
286.442
 20
33.302
 30
0.0
 11
286.442
 21
32.874
 31
0.0
  0
TEXT
  8
1
  6
CONTINUOUS
 10
286.129
 20
32.674
 30
0.0
 40
0.075
  1
1.40
  7
ROMANC
  0
LINE
  8
1
  6
CONTINUOUS
 10
286.091
 20
32.711
 30
0.0
 11
285.542
 21
32.711
 31
0.0
  0
LINE
  8
1
  6
CONTINUOUS
 10
286.393
 20
32.711
 30
0.0
 11
286.942
 21
32.711
 31
0.0
  0
LINE
  8
1
  6
CONTINUOUS
 10
285.504
 20
32.692
 30
0.0
 11
285.58
 21
32.73
 31
0.0
  0
LINE
  8
1
  6
CONTINUOUS
 10
286.98
 20
32.73
 30
0.0
 11
286.904
 21
32.692
 31
0.0
  0
LINE
  8
1
  6
CONTINUOUS
 10
285.542
 20
33.302
 30
0.0
 11
285.542
 21
32.673
 31
0.0
  0
LINE
  8
1
  6
CONTINUOUS
 10
286.942
 20
33.302
 30
0.0
 11
286.942
 21
32.673
 31
0.0
  0
LINE
  8
1
  6
CONTINUOUS
 10
286.942
 20
34.74
 30
0.0
 11
286.942
 21
33.34
 31
0.0
  0
TEXT
  8
1
  6
CONTINUOUS
 10
287.256
 20
32.834
 30
0.0
 40
0.075
  1
0.10
 50
90.0
  7
ROMANC
  0
LINE
  8
1
  6
CONTINUOUS
 10
287.219
 20
33.167
 30
0.0
 11
287.219
 21
33.24
 31
0.0
  0
LINE
  8
1
  6
CONTINUOUS
 10
287.219
 20
33.49
 30
0.0
 11
287.219
 21
33.34
 31
0.0
  0
LINE
  8
1
  6
CONTINUOUS
 10
287.2
 20
33.278
 30
0.0
 11
287.238
 21
33.202
 31
0.0
  0
LINE
  8
1
  6
CONTINUOUS
 10
287.238
 20
33.302
 30
0.0
 11
287.2
 21
33.378
 31
0.0
  0
LINE
  8
1
  6
CONTINUOUS
 10
286.28
 20
33.24
 30
0.0
 11
287.257
 21
33.24
 31
0.0
  0
LINE
  8
1
  6
CONTINUOUS
 10
286.98
 20
33.34
 30
0.0
 11
287.257
 21
33.34
 31
0.0
  0
TEXT
  8
1
  6
CONTINUOUS
 10
287.436
 20
33.927
 30
0.0
 40
0.075
  1
1.40
 50
90.0
  7
ROMANC
  0
LINE
  8
1
  6
CONTINUOUS
 10
287.398
 20
33.889
 30
0.0
 11
287.398
 21
33.34
 31
0.0
  0
LINE
  8
1
  6
CONTINUOUS
 10
287.398
 20
34.191
 30
0.0
 11
287.398
 21
34.74
 31
0.0
  0
LINE
  8
1
  6
CONTINUOUS
 10
287.417
 20
33.302
 30
0.0
 11
287.379
 21
33.378
 31
0.0
  0
LINE
  8
1
  6
CONTINUOUS
 10
287.379
 20
34.778
 30
0.0
 11
287.417
 21
34.702
 31
0.0
  0
LINE
  8
1
  6
CONTINUOUS
 10
286.98
 20
33.34
 30
0.0
 11
287.436
 21
33.34
 31
0.0
  0
LINE
  8
1
  6
CONTINUOUS
 10
286.98
 20
34.74
 30
0.0
 11
287.436
 21
34.74
 31
0.0
  0
TEXT
  8
1
  6
CONTINUOUS
 10
287.64
 20
34.08
 30
0.0
 40
0.075
  1
1.90
 50
90.0
  7
ROMANC
  0
LINE
  8
1
  6
CONTINUOUS
 10
287.603
 20
34.042
 30
0.0
 11
287.603
 21
33.24
 31
0.0
  0
LINE
  8
1
  6
CONTINUOUS
 10
287.603
 20
34.337
 30
0.0
 11
287.603
 21
35.14
 31
0.0
  0
LINE
  8
1
  6
CONTINUOUS
 10
287.622
 20
33.202
 30
0.0
 11
287.584
 21
33.278
 31
0.0
  0
LINE
  8
1
  6
CONTINUOUS
 10
287.584
 20
35.178
 30
0.0
 11
287.622
 21
35.102
 31
0.0
  0
LINE
  8
1
  6
CONTINUOUS
 10
286.28
 20
33.24
 30
0.0
 11
287.641
 21
33.24
 31
0.0
  0
LINE
  8
1
  6
CONTINUOUS
 10
286.28
 20
35.14
 30
0.0
 11
287.641
 21
35.14
 31
0.0
  0
POLYLINE
  8
1
  6
CONTINUOUS
 66
     1
 10
0.0
 20
0.0
 30
0.0
  0
VERTEX
  8
1
  6
CONTINUOUS
 10
286.952
 20
34.74
 30
0.0
 42
0.05679
  0
VERTEX
  8
1
  6
CONTINUOUS
 10
286.94563
 20
34.794322
 30
0.0
 42
0.051612
  0
VERTEX
  8
1
  6
CONTINUOUS
 10
286.927807
 20
34.846116
 30
0.0
 42
0.048432
  0
VERTEX
  8
1
  6
CONTINUOUS
 10
286.896695
 20
34.898599
 30
0.0
 42
0.039179
  0
VERTEX
  8
1
  6
CONTINUOUS
 10
286.856878
 20
34.945
 30
0.0
 42
0.036243
  0
VERTEX
  8
1
  6
CONTINUOUS
 10
286.803268
 20
34.991113
 30
0.0
 42
0.029167
  0
VERTEX
  8
1
  6
CONTINUOUS
 10
286.744046
 20
35.029914
 30
0.0
 42
0.027338
  0
VERTEX
  8
1
  6
CONTINUOUS
 10
286.672185
 20
35.066187
 30
0.0
 42
0.02311
  0
VERTEX
  8
1
  6
CONTINUOUS
 10
286.597
 20
35.09507
 30
0.0
 42
0.02211
  0
VERTEX
  8
1
  6
CONTINUOUS
 10
286.512252
 20
35.119146
 30
0.0
 42
0.019952
  0
VERTEX
  8
1
  6
CONTINUOUS
 10
286.425762
 20
35.13603
 30
0.0
 42
0.019514
  0
VERTEX
  8
1
  6
CONTINUOUS
 10
286.334152
 20
35.146537
 30
0.0
 42
0.018855
  0
VERTEX
  8
1
  6
CONTINUOUS
 10
286.242
 20
35.15
 30
0.0
 42
0.018855
  0
VERTEX
  8
1
  6
CONTINUOUS
 10
286.149848
 20
35.146537
 30
0.0
 42
0.019514
  0
VERTEX
  8
1
  6
CONTINUOUS
 10
286.058238
 20
35.13603
 30
0.0
 42
0.019952
  0
VERTEX
  8
1
  6
CONTINUOUS
 10
285.971748
 20
35.119146
 30
0.0
 42
0.02211
  0
VERTEX
  8
1
  6
CONTINUOUS
 10
285.887
 20
35.09507
 30
0.0
 42
0.02311
  0
VERTEX
  8
1
  6
CONTINUOUS
 10
285.811815
 20
35.066187
 30
0.0
 42
0.027338
  0
VERTEX
  8
1
  6
CONTINUOUS
 10
285.739954
 20
35.029914
 30
0.0
 42
0.029167
  0
VERTEX
  8
1
  6
CONTINUOUS
 10
285.680732
 20
34.991113
 30
0.0
 42
0.036243
  0
VERTEX
  8
1
  6
CONTINUOUS
 10
285.627122
 20
34.945
 30
0.0
 42
0.039179
  0
VERTEX
  8
1
  6
CONTINUOUS
 10
285.587305
 20
34.898599
 30
0.0
 42
0.048432
  0
VERTEX
  8
1
  6
CONTINUOUS
 10
285.556193
 20
34.846116
 30
0.0
 42
0.051612
  0
VERTEX
  8
1
  6
CONTINUOUS
 10
285.53837
 20
34.794322
 30
0.0
 42
0.05679
  0
VERTEX
  8
1
  6
CONTINUOUS
 10
285.532
 20
34.74
 30
0.0
  0
SEQEND
  8
0
  0
POLYLINE
  8
1
  6
CONTINUOUS
 66
     1
 10
0.0
 20
0.0
 30
0.0
  0
VERTEX
  8
1
  6
CONTINUOUS
 10
286.962
 20
34.74
 30
0.0
 42
0.056216
  0
VERTEX
  8
1
  6
CONTINUOUS
 10
286.955548
 20
34.795624
 30
0.0
 42
0.05123
  0
VERTEX
  8
1
  6
CONTINUOUS
 10
286.937467
 20
34.848704
 30
0.0
 42
0.048158
  0
VERTEX
  8
1
  6
CONTINUOUS
 10
286.905945
 20
34.902426
 30
0.0
 42
0.039151
  0
VERTEX
  8
1
  6
CONTINUOUS
 10
286.865538
 20
34.95
 30
0.0
 42
0.036273
  0
VERTEX
  8
1
  6
CONTINUOUS
 10
286.811208
 20
34.997209
 30
0.0
 42
0.029303
  0
VERTEX
  8
1
  6
CONTINUOUS
 10
286.751117
 20
35.036985
 30
0.0
 42
0.027491
  0
VERTEX
  8
1
  6
CONTINUOUS
 10
286.678272
 20
35.07413
 30
0.0
 42
0.023293
  0
VERTEX
  8
1
  6
CONTINUOUS
 10
286.602
 20
35.103731
 30
0.0
 42
0.022296
  0
VERTEX
  8
1
  6
CONTINUOUS
 10
286.516075
 20
35.128389
 30
0.0
 42
0.020143
  0
VERTEX
  8
1
  6
CONTINUOUS
 10
286.42835
 20
35.145689
 30
0.0
 42
0.019705
  0
VERTEX
  8
1
  6
CONTINUOUS
 10
286.335455
 20
35.156452
 30
0.0
 42
0.019047
  0
VERTEX
  8
1
  6
CONTINUOUS
 10
286.242
 20
35.16
 30
0.0
 42
0.019047
  0
VERTEX
  8
1
  6
CONTINUOUS
 10
286.148545
 20
35.156452
 30
0.0
 42
0.019705
  0
VERTEX
  8
1
  6
CONTINUOUS
 10
286.05565
 20
35.145689
 30
0.0
 42
0.020143
  0
VERTEX
  8
1
  6
CONTINUOUS
 10
285.967925
 20
35.128389
 30
0.0
 42
0.022296
  0
VERTEX
  8
1
  6
CONTINUOUS
 10
285.882
 20
35.103731
 30
0.0
 42
0.023293
  0
VERTEX
  8
1
  6
CONTINUOUS
 10
285.805728
 20
35.07413
 30
0.0
 42
0.027491
  0
VERTEX
  8
1
  6
CONTINUOUS
 10
285.732883
 20
35.036985
 30
0.0
 42
0.029303
  0
VERTEX
  8
1
  6
CONTINUOUS
 10
285.672792
 20
34.997209
 30
0.0
 42
0.036273
  0
VERTEX
  8
1
  6
CONTINUOUS
 10
285.618462
 20
34.95
 30
0.0
 42
0.039151
  0
VERTEX
  8
1
  6
CONTINUOUS
 10
285.578055
 20
34.902426
 30
0.0
 42
0.048158
  0
VERTEX
  8
1
  6
CONTINUOUS
 10
285.546533
 20
34.848704
 30
0.0
 42
0.05123
  0
VERTEX
  8
1
  6
CONTINUOUS
 10
285.528452
 20
34.795624
 30
0.0
 42
0.056216
  0
VERTEX
  8
1
  6
CONTINUOUS
 10
285.522
 20
34.74
 30
0.0
  0
SEQEND
  8
0
  0
LINE
  8
1
  6
CONTINUOUS
 10
286.952
 20
34.74
 30
0.0
 11
286.952
 21
33.33
 31
0.0
  0
LINE
  8
1
  6
CONTINUOUS
 10
286.962
 20
34.74
 30
0.0
 11
286.962
 21
33.32
 31
0.0
  0
LINE
  8
1
  6
CONTINUOUS
 10
286.952
 20
33.33
 30
0.0
 11
286.447
 21
33.33
 31
0.0
  0
LINE
  8
1
  6
CONTINUOUS
 10
286.962
 20
33.32
 30
0.0
 11
286.452
 21
33.32
 31
0.0
  0
ARC
  8
1
  6
CONTINUOUS
 10
286.242
 20
33.49
 30
0.0
 40
0.26
 50
217.979872
 51
322.020128
  0
ARC
  8
1
  6
CONTINUOUS
 10
286.242
 20
33.49
 30
0.0
 40
0.27
 50
219.022803
 51
320.977197
  0
LINE
  8
1
  6
CONTINUOUS
 10
286.037
 20
33.33
 30
0.0
 11
285.532
 21
33.33
 31
0.0
  0
LINE
  8
1
  6
CONTINUOUS
 10
286.032
 20
33.32
 30
0.0
 11
285.522
 21
33.32
 31
0.0
  0
LINE
  8
1
  6
CONTINUOUS
 10
285.532
 20
33.33
 30
0.0
 11
285.532
 21
34.74
 31
0.0
  0
LINE
  8
1
  6
CONTINUOUS
 10
285.522
 20
33.32
 30
0.0
 11
285.522
 21
34.74
 31
0.0
  0
LINE
  8
1
  6
CONTINUOUS
 10
287.398
 20
35.29
 30
0.0
 11
287.398
 21
35.14
 31
0.0
  0
LINE
  8
1
  6
CONTINUOUS
 10
287.417
 20
35.102
 30
0.0
 11
287.379
 21
35.178
 31
0.0
  0
TEXT
  8
1
  6
CONTINUOUS
 10
287.421415
 20
34.816176
 30
0.0
 40
0.075
  1
0.40
 50
90.0
  7
ROMANC
  0
ENDSEC
  0
EOF
