  0
SECTION
  2
HEADER
  9
$ACADVER
  1
AC1009
  9
$INSBASE
 10
0.0
 20
0.0
 30
0.0
  9
$EXTMIN
 10
281.396
 20
29.897
 30
0.0
  9
$EXTMAX
 10
291.896
 20
44.747
 30
0.0
  9
$LIMMIN
 10
280.396
 20
28.897
  9
$LIMMAX
 10
292.896
 20
43.747
  9
$ORTHOMODE
 70
     1
  9
$REGENMODE
 70
     1
  9
$FILLMODE
 70
     1
  9
$QTEXTMODE
 70
     0
  9
$MIRRTEXT
 70
     1
  9
$DRAGMODE
 70
     2
  9
$LTSCALE
 40
1.0
  9
$OSMODE
 70
     0
  9
$ATTMODE
 70
     1
  9
$TEXTSIZE
 40
0.2
  9
$TRACEWID
 40
0.05
  9
$TEXTSTYLE
  7
STANDARD
  9
$CLAYER
  8
0
  9
$CELTYPE
  6
BYLAYER
  9
$CECOLOR
 62
   256
  9
$DIMSCALE
 40
1.0
  9
$DIMASZ
 40
0.18
  9
$DIMEXO
 40
0.0625
  9
$DIMDLI
 40
0.38
  9
$DIMRND
 40
0.0
  9
$DIMDLE
 40
0.0
  9
$DIMEXE
 40
0.18
  9
$DIMTP
 40
0.0
  9
$DIMTM
 40
0.0
  9
$DIMTXT
 40
0.18
  9
$DIMCEN
 40
0.09
  9
$DIMTSZ
 40
0.0
  9
$DIMTOL
 70
     0
  9
$DIMLIM
 70
     0
  9
$DIMTIH
 70
     1
  9
$DIMTOH
 70
     1
  9
$DIMSE1
 70
     0
  9
$DIMSE2
 70
     0
  9
$DIMTAD
 70
     0
  9
$DIMZIN
 70
     0
  9
$DIMBLK
  1

  9
$DIMASO
 70
     1
  9
$DIMSHO
 70
     1
  9
$DIMPOST
  1

  9
$DIMAPOST
  1

  9
$DIMALT
 70
     0
  9
$DIMALTD
 70
     2
  9
$DIMALTF
 40
25.4
  9
$DIMLFAC
 40
1.0
  9
$DIMTOFL
 70
     0
  9
$DIMTVP
 40
0.0
  9
$DIMTIX
 70
     0
  9
$DIMSOXD
 70
     0
  9
$DIMSAH
 70
     0
  9
$DIMBLK1
  1

  9
$DIMBLK2
  1

  9
$DIMSTYLE
  2
*UNNAMED
  9
$DIMCLRD
 70
     0
  9
$DIMCLRE
 70
     0
  9
$DIMCLRT
 70
     0
  9
$DIMTFAC
 40
1.0
  9
$DIMGAP
 40
0.09
  9
$LUNITS
 70
     2
  9
$LUPREC
 70
     4
  9
$SKETCHINC
 40
0.1
  9
$FILLETRAD
 40
0.0
  9
$AUNITS
 70
     0
  9
$AUPREC
 70
     0
  9
$MENU
  1
acad
  9
$ELEVATION
 40
0.0
  9
$PELEVATION
 40
0.0
  9
$THICKNESS
 40
0.0
  9
$LIMCHECK
 70
     0
  9
$BLIPMODE
 70
     1
  9
$CHAMFERA
 40
0.0
  9
$CHAMFERB
 40
0.0
  9
$SKPOLY
 70
     0
  9
$TDCREATE
 40
2448315.373408102
  9
$TDUPDATE
 40
2448315.373408102
  9
$TDINDWG
 40
0.0000000000
  9
$TDUSRTIMER
 40
0.0000000000
  9
$USRTIMER
 70
     1
  9
$ANGBASE
 50
0.0
  9
$ANGDIR
 70
     0
  9
$PDMODE
 70
     0
  9
$PDSIZE
 40
0.0
  9
$PLINEWID
 40
0.0
  9
$COORDS
 70
     0
  9
$SPLFRAME
 70
     0
  9
$SPLINETYPE
 70
     6
  9
$SPLINESEGS
 70
     8
  9
$ATTDIA
 70
     0
  9
$ATTREQ
 70
     1
  9
$HANDLING
 70
     0
  9
$HANDSEED
  5
0
  9
$SURFTAB1
 70
     6
  9
$SURFTAB2
 70
     6
  9
$SURFTYPE
 70
     6
  9
$SURFU
 70
     6
  9
$SURFV
 70
     6
  9
$UCSNAME
  2

  9
$UCSORG
 10
0.0
 20
0.0
 30
0.0
  9
$UCSXDIR
 10
1.0
 20
0.0
 30
0.0
  9
$UCSYDIR
 10
0.0
 20
1.0
 30
0.0
  9
$PUCSNAME
  2

  9
$PUCSORG
 10
0.0
 20
0.0
 30
0.0
  9
$PUCSXDIR
 10
1.0
 20
0.0
 30
0.0
  9
$PUCSYDIR
 10
0.0
 20
1.0
 30
0.0
  9
$USERI1
 70
     0
  9
$USERI2
 70
     0
  9
$USERI3
 70
     0
  9
$USERI4
 70
     0
  9
$USERI5
 70
     0
  9
$USERR1
 40
0.0
  9
$USERR2
 40
0.0
  9
$USERR3
 40
0.0
  9
$USERR4
 40
0.0
  9
$USERR5
 40
0.0
  9
$WORLDVIEW
 70
     1
  9
$SHADEDGE
 70
     3
  9
$SHADEDIF
 70
    70
  9
$TILEMODE
 70
     1
  9
$MAXACTVP
 70
    16
  9
$PINSBASE
 10
0.0
 20
0.0
 30
0.0
  9
$PLIMCHECK
 70
     0
  9
$PEXTMIN
 10
1.000000E+20
 20
1.000000E+20
 30
1.000000E+20
  9
$PEXTMAX
 10
-1.000000E+20
 20
-1.000000E+20
 30
-1.000000E+20
  9
$PLIMMIN
 10
0.0
 20
0.0
  9
$PLIMMAX
 10
12.0
 20
9.0
  9
$UNITMODE
 70
     0
  9
$VISRETAIN
 70
     0
  9
$PLINEGEN
 70
     0
  9
$PSLTSCALE
 70
     0
  9
$TREEDEPTH
 70
  3020
  9
$DWGCODEPAGE
  3
iso8859-1
  0
ENDSEC
  0
SECTION
  2
TABLES
  0
TABLE
  2
VPORT
 70
     2
  0
VPORT
  2
*ACTIVE
 70
     0
 10
0.0
 20
0.0
 11
1.0
 21
1.0
 12
293.163362
 22
36.822
 13
0.0
 23
0.0
 14
1.0
 24
1.0
 15
10.0
 25
10.0
 16
0.0
 26
0.0
 36
1.0
 17
0.0
 27
0.0
 37
0.0
 40
15.85
 41
1.611024
 42
50.0
 43
0.0
 44
0.0
 50
0.0
 51
0.0
 71
     0
 72
   100
 73
     1
 74
     0
 75
     0
 76
     0
 77
     0
 78
     0
  0
ENDTAB
  0
TABLE
  2
LTYPE
 70
     1
  0
LTYPE
  2
CONTINUOUS
 70
    64
  3
Solid line
 72
    65
 73
     0
 40
0.0
  0
ENDTAB
  0
TABLE
  2
LAYER
 70
     7
  0
LAYER
  2
0
 70
    64
 62
     7
  6
CONTINUOUS
  0
LAYER
  2
1
 70
    64
 62
     7
  6
CONTINUOUS
  0
LAYER
  2
7
 70
    64
 62
     7
  6
CONTINUOUS
  0
LAYER
  2
8
 70
    64
 62
     7
  6
CONTINUOUS
  0
LAYER
  2
9
 70
    64
 62
     7
  6
CONTINUOUS
  0
LAYER
  2
22
 70
    64
 62
     7
  6
CONTINUOUS
  0
LAYER
  2
25
 70
    64
 62
     7
  6
CONTINUOUS
  0
ENDTAB
  0
TABLE
  2
STYLE
 70
     2
  0
STYLE
  2
STANDARD
 70
     0
 40
0.0
 41
1.0
 50
0.0
 71
     0
 42
3.5
  3
txt
  4

  0
STYLE
  2
ROMANC
 70
     0
 40
0.0
 41
1.0
 50
0.0
 71
     0
 42
0.2
  3
ROMANC
  4

  0
ENDTAB
  0
TABLE
  2
VIEW
 70
     0
  0
ENDTAB
  0
TABLE
  2
UCS
 70
     0
  0
ENDTAB
  0
TABLE
  2
APPID
 70
     1
  0
APPID
  2
ACAD
 70
    64
  0
ENDTAB
  0
TABLE
  2
DIMSTYLE
 70
     0
  0
ENDTAB
  0
ENDSEC
  0
SECTION
  2
BLOCKS
  0
ENDSEC
  0
SECTION
  2
ENTITIES
  0
TEXT
  8
0
  6
CONTINUOUS
 10
286.909
 20
41.324
 30
0.0
 40
0.1
  1
2
  7
ROMANC
  0
TEXT
  8
0
  6
CONTINUOUS
 10
283.926
 20
41.768
 30
0.0
 40
0.3
  1
ESCALA  1:50
  7
ROMANC
  0
POLYLINE
  8
0
  6
CONTINUOUS
 66
     1
 10
0.0
 20
0.0
 30
0.0
 70
     1
  0
VERTEX
  8
0
  6
CONTINUOUS
 10
281.396
 20
44.747
 30
0.0
  0
VERTEX
  8
0
  6
CONTINUOUS
 10
291.896
 20
44.747
 30
0.0
  0
VERTEX
  8
0
  6
CONTINUOUS
 10
291.896
 20
29.897
 30
0.0
  0
VERTEX
  8
0
  6
CONTINUOUS
 10
281.396
 20
29.897
 30
0.0
  0
SEQEND
  8
0
  0
TEXT
  8
0
  6
CONTINUOUS
 10
283.922
 20
40.529
 30
0.0
 40
0.3
  1
P = 66 dm
  7
ROMANC
  0
TEXT
  8
0
  6
CONTINUOUS
 10
283.945
 20
41.099
 30
0.0
 40
0.3
  1
S = 243 dm
  7
ROMANC
  0
ARC
  8
1
  6
CONTINUOUS
 10
286.568
 20
31.423931
 30
0.0
 40
2.328069
 50
67.257736
 51
112.742267
  0
ARC
  8
1
  6
CONTINUOUS
 10
287.235002
 20
33.154623
 30
0.0
 40
0.477135
 50
31.229214
 51
60.769272
  0
LINE
  8
1
  6
CONTINUOUS
 10
287.643
 20
33.402
 30
0.0
 11
287.643
 21
32.652
 31
0.0
  0
LINE
  8
1
  6
CONTINUOUS
 10
287.643
 20
32.652
 30
0.0
 11
286.918
 21
32.652
 31
0.0
  0
LINE
  8
1
  6
CONTINUOUS
 10
286.918
 20
32.652
 30
0.0
 11
286.918
 21
32.552
 31
0.0
  0
ARC
  8
1
  6
CONTINUOUS
 10
286.568
 20
32.552
 30
0.0
 40
0.35
 50
180.0
 51
0.0
  0
LINE
  8
1
  6
CONTINUOUS
 10
286.218
 20
32.552
 30
0.0
 11
286.218
 21
32.652
 31
0.0
  0
LINE
  8
1
  6
CONTINUOUS
 10
286.218
 20
32.652
 30
0.0
 11
285.493
 21
32.652
 31
0.0
  0
LINE
  8
1
  6
CONTINUOUS
 10
285.493
 20
32.652
 30
0.0
 11
285.493
 21
33.402
 31
0.0
  0
ARC
  8
1
  6
CONTINUOUS
 10
285.900998
 20
33.154623
 30
0.0
 40
0.477135
 50
119.230728
 51
148.770786
  0
TEXT
  8
1
  6
CONTINUOUS
 10
286.449
 20
31.974
 30
0.0
 40
0.075
  1
0.70
  7
ROMANC
  0
LINE
  8
1
  6
CONTINUOUS
 10
286.411
 20
32.012
 30
0.0
 11
286.218
 21
32.012
 31
0.0
  0
LINE
  8
1
  6
CONTINUOUS
 10
286.723
 20
32.012
 30
0.0
 11
286.918
 21
32.012
 31
0.0
  0
LINE
  8
1
  6
CONTINUOUS
 10
286.18
 20
31.993
 30
0.0
 11
286.256
 21
32.031
 31
0.0
  0
LINE
  8
1
  6
CONTINUOUS
 10
286.956
 20
32.031
 30
0.0
 11
286.88
 21
31.993
 31
0.0
  0
LINE
  8
1
  6
CONTINUOUS
 10
286.218
 20
32.614
 30
0.0
 11
286.218
 21
31.974
 31
0.0
  0
LINE
  8
1
  6
CONTINUOUS
 10
286.918
 20
32.614
 30
0.0
 11
286.918
 21
31.974
 31
0.0
  0
TEXT
  8
1
  6
CONTINUOUS
 10
286.458
 20
31.782
 30
0.0
 40
0.075
  1
2.15
  7
ROMANC
  0
LINE
  8
1
  6
CONTINUOUS
 10
286.42
 20
31.82
 30
0.0
 11
285.493
 21
31.82
 31
0.0
  0
LINE
  8
1
  6
CONTINUOUS
 10
286.715
 20
31.82
 30
0.0
 11
287.643
 21
31.82
 31
0.0
  0
LINE
  8
1
  6
CONTINUOUS
 10
285.456
 20
31.801
 30
0.0
 11
285.53
 21
31.839
 31
0.0
  0
LINE
  8
1
  6
CONTINUOUS
 10
287.68
 20
31.839
 30
0.0
 11
287.606
 21
31.801
 31
0.0
  0
LINE
  8
1
  6
CONTINUOUS
 10
285.493
 20
32.614
 30
0.0
 11
285.493
 21
31.782
 31
0.0
  0
LINE
  8
1
  6
CONTINUOUS
 10
287.643
 20
32.614
 30
0.0
 11
287.643
 21
31.782
 31
0.0
  0
TEXT
  8
1
  6
CONTINUOUS
 10
287.902
 20
32.305
 30
0.0
 40
0.075
  1
0.45
 50
90.0
  7
ROMANC
  0
LINE
  8
1
  6
CONTINUOUS
 10
287.864
 20
32.052
 30
0.0
 11
287.864
 21
32.202
 31
0.0
  0
LINE
  8
1
  6
CONTINUOUS
 10
287.864
 20
32.802
 30
0.0
 11
287.864
 21
32.652
 31
0.0
  0
LINE
  8
1
  6
CONTINUOUS
 10
287.845
 20
32.24
 30
0.0
 11
287.883
 21
32.164
 31
0.0
  0
LINE
  8
1
  6
CONTINUOUS
 10
287.883
 20
32.614
 30
0.0
 11
287.845
 21
32.69
 31
0.0
  0
LINE
  8
1
  6
CONTINUOUS
 10
286.606
 20
32.202
 30
0.0
 11
287.902
 21
32.202
 31
0.0
  0
LINE
  8
1
  6
CONTINUOUS
 10
287.681
 20
32.652
 30
0.0
 11
287.902
 21
32.652
 31
0.0
  0
TEXT
  8
1
  6
CONTINUOUS
 10
287.902
 20
32.908
 30
0.0
 40
0.075
  1
0.75
 50
90.0
  7
ROMANC
  0
LINE
  8
1
  6
CONTINUOUS
 10
287.864
 20
32.87
 30
0.0
 11
287.864
 21
32.652
 31
0.0
  0
LINE
  8
1
  6
CONTINUOUS
 10
287.864
 20
33.182
 30
0.0
 11
287.864
 21
33.402
 31
0.0
  0
LINE
  8
1
  6
CONTINUOUS
 10
287.883
 20
32.614
 30
0.0
 11
287.845
 21
32.69
 31
0.0
  0
LINE
  8
1
  6
CONTINUOUS
 10
287.845
 20
33.44
 30
0.0
 11
287.883
 21
33.364
 31
0.0
  0
LINE
  8
1
  6
CONTINUOUS
 10
287.681
 20
33.402
 30
0.0
 11
287.902
 21
33.402
 31
0.0
  0
TEXT
  8
1
  6
CONTINUOUS
 10
288.152
 20
32.867
 30
0.0
 40
0.075
  1
1.55
 50
90.0
  7
ROMANC
  0
LINE
  8
1
  6
CONTINUOUS
 10
288.114
 20
32.829
 30
0.0
 11
288.114
 21
32.202
 31
0.0
  0
LINE
  8
1
  6
CONTINUOUS
 10
288.114
 20
33.124
 30
0.0
 11
288.114
 21
33.752
 31
0.0
  0
LINE
  8
1
  6
CONTINUOUS
 10
288.133
 20
32.164
 30
0.0
 11
288.095
 21
32.24
 31
0.0
  0
LINE
  8
1
  6
CONTINUOUS
 10
288.095
 20
33.79
 30
0.0
 11
288.133
 21
33.714
 31
0.0
  0
LINE
  8
1
  6
CONTINUOUS
 10
286.606
 20
32.202
 30
0.0
 11
288.152
 21
32.202
 31
0.0
  0
LINE
  8
1
  6
CONTINUOUS
 10
286.606
 20
33.752
 30
0.0
 11
288.152
 21
33.752
 31
0.0
  0
ARC
  8
1
  6
CONTINUOUS
 10
286.568
 20
31.423931
 30
0.0
 40
2.338069
 50
67.257736
 51
112.742267
  0
ARC
  8
1
  6
CONTINUOUS
 10
286.568
 20
31.423931
 30
0.0
 40
2.348069
 50
67.257736
 51
112.742267
  0
ARC
  8
1
  6
CONTINUOUS
 10
287.235002
 20
33.154623
 30
0.0
 40
0.487135
 50
30.898925
 51
60.769272
  0
ARC
  8
1
  6
CONTINUOUS
 10
287.235002
 20
33.154623
 30
0.0
 40
0.497135
 50
30.578903
 51
60.769272
  0
LINE
  8
1
  6
CONTINUOUS
 10
287.653
 20
33.405
 30
0.0
 11
287.653
 21
32.642
 31
0.0
  0
LINE
  8
1
  6
CONTINUOUS
 10
287.663
 20
33.408
 30
0.0
 11
287.663
 21
32.632
 31
0.0
  0
LINE
  8
1
  6
CONTINUOUS
 10
287.653
 20
32.642
 30
0.0
 11
286.928
 21
32.642
 31
0.0
  0
LINE
  8
1
  6
CONTINUOUS
 10
287.663
 20
32.632
 30
0.0
 11
286.938
 21
32.632
 31
0.0
  0
LINE
  8
1
  6
CONTINUOUS
 10
286.928
 20
32.642
 30
0.0
 11
286.928
 21
32.552
 31
0.0
  0
LINE
  8
1
  6
CONTINUOUS
 10
286.938
 20
32.632
 30
0.0
 11
286.938
 21
32.552
 31
0.0
  0
ARC
  8
1
  6
CONTINUOUS
 10
286.568
 20
32.552
 30
0.0
 40
0.36
 50
180.0
 51
0.0
  0
ARC
  8
1
  6
CONTINUOUS
 10
286.568
 20
32.552
 30
0.0
 40
0.37
 50
180.0
 51
0.0
  0
LINE
  8
1
  6
CONTINUOUS
 10
286.208
 20
32.552
 30
0.0
 11
286.208
 21
32.642
 31
0.0
  0
LINE
  8
1
  6
CONTINUOUS
 10
286.198
 20
32.552
 30
0.0
 11
286.198
 21
32.632
 31
0.0
  0
LINE
  8
1
  6
CONTINUOUS
 10
286.208
 20
32.642
 30
0.0
 11
285.483
 21
32.642
 31
0.0
  0
LINE
  8
1
  6
CONTINUOUS
 10
286.198
 20
32.632
 30
0.0
 11
285.473
 21
32.632
 31
0.0
  0
LINE
  8
1
  6
CONTINUOUS
 10
285.483
 20
32.642
 30
0.0
 11
285.483
 21
33.402
 31
0.0
  0
LINE
  8
1
  6
CONTINUOUS
 10
285.473
 20
32.632
 30
0.0
 11
285.473
 21
33.408
 31
0.0
  0
ARC
  8
1
  6
CONTINUOUS
 10
285.900998
 20
33.154623
 30
0.0
 40
0.487135
 50
119.230728
 51
148.770786
  0
ARC
  8
1
  6
CONTINUOUS
 10
285.900998
 20
33.154623
 30
0.0
 40
0.497135
 50
119.230728
 51
149.421097
  0
TEXT
  8
0
  6
CONTINUOUS
 10
283.926
 20
42.381
 30
0.0
 40
0.3
  1
TIPUS   NT243A
  7
ROMANC
  0
LINE
  8
1
  6
CONTINUOUS
 10
287.868486
 20
33.752
 30
0.0
 11
287.868486
 21
33.902
 31
0.0
  0
LINE
  8
1
  6
CONTINUOUS
 10
287.849486
 20
33.790528
 30
0.0
 11
287.887486
 21
33.714528
 31
0.0
  0
TEXT
  8
1
  6
CONTINUOUS
 10
287.902
 20
33.434327
 30
0.0
 40
0.075
  1
0.35
 50
90.0
  7
ROMANC
  0
ENDSEC
  0
EOF
